Lost Prophets - And She Told Me To Leave Chords & Tabs

 

And She Told Me To Leave Chords & Tabs

Lost Prophets Chords & Tabs

Version: 1 Type: Tab 0 ratings
1 star 2 stars 3 stars 4 stars 5 stars
comments

And She Told Me To Leave Tab

   
…and she told me to leave
by Lost Prophets
Tabbed by Dave Costello (Cozuk2000@yahoo.com)
Tuning : C G C F A D
A gr8 song

Intro: (Clean gt w/tremelo)

-----------------------------------------
---------3--------------3------3---------
-------------0------0--------------------
-----2-----------4---------0-------------		X7
-----------------------------------------
-----------------------------------------

the eighth time

----------------------0--------
--------3----------------3-----
-----------0------0------------
-------------------------------
----2----------3---------------
-------------------------------

Verse riff same

Bridge:

Not too sure about this section, I think it’s just distorted chords of D and E :

Add harmonics at the beginning of the second half of the bridge

-------------------------------------------------(7)--------------
----3-3-3--------------------3-3-3-3-3-3---------(7)--------------
----0-0-0--------------------2-2-2-0-0-0---------(7)--------------
----2-2-2--------------------0-0-0-2-2-2--------------------------
------------------------------------------------------------------
------------------------------------------------------------------

Section end leading into chorus:
-------------
-------------
----5-----7--
----5-----7--
----3-----5--
-------------

Chorus:
[ Tab from: http://www.guitartabs.cc/tabs/l/lost_prophets/and_she_told_me_to_leave_tab.html ]
-----------------------------------------------------------
-----------------------------------------------------------
-------------------------------------5-5----7-7------------
-------------------------------------5-5----7-7------------		X2
---2--2-0-2-0-2-4-2--2--2-0-2-0-4-2--3-3----5-5------------
---2--2-0-2-0-2-4-2--2--2-0-2-0-4-2------------------------

Link: chord sequence of the intro and verse
Verse 2:  Same as Verse 1

Bridge same as bridge 1

Chorus

-----------------------------------------------------------
-----------------------------------------------------------
-------------------------------------5-5----7-7------------
-------------------------------------5-5----7-7------------		X4
---2--2-0-2-0-2-4-2--2--2-0-2-0-4-2--3-3----5-5------------
---2--2-0-2-0-2-4-2--2--2-0-2-0-4-2------------------------

Fade Out

-12-12--12-12--12-12--12-12-12--12--12-12--12-12--12-12--12-12-12--12-
-10-10--10-10--10-10--10-10-10--10--10-10--10-10--10-10--10-10-10--10-
----------------------------------------------------------------------
----------------------------------------------------------------------
----------------------------------------------------------------------
----------------------------------------------------------------------


-15-15--15-15--15-15--15-15-15--15--17-17--17-17-17-19--19-19-19--19--
-13-13--13-13--13-13--13-13-13--13--15-15--15-15-15-17--17-17-17--17--
----------------------------------------------------------------------
----------------------------------------------------------------------
----------------------------------------------------------------------
----------------------------------------------------------------------






Comments