Los Zuchos Del Vado - Colegiala Chords & Tabs

 

Colegiala Chords & Tabs

Los Zuchos Del Vado Chords & Tabs

Version: 1 Type: Bass Tab

Colegiala Bass Tab

Song: Colegiala
Band: Los Zuchos del Vado
Album: Los Zuchos del Vado(2004)

G|----------------------|
D|----------------------|
A|-----------------3----|
E|-5--5-5-3--3-3-5------|
[ Tab from: http://www.guitartabs.cc/tabs/l/los_zuchos_del_vado/colegiala_btab.html ]
G|----------------------|
D|----------------------|
A|-----------------3----|
E|-5--5-5-3--3-3-5------|

G|--------|
D|--------|
A|--------|
E|-5-5-3--|

MySpace Zuchos
   http://www.myspace.com/loszuchosdelvado
Video
   http://www.youtube.com/watch?v=9LwJ1Mw6SmM