Los Lonely Boys - Tell Me Why Chords & Tabs

 

Tell Me Why Chords & Tabs

Los Lonely Boys Chords & Tabs

Version: 1 Type: Bass Tab 0 ratings
1 star 2 stars 3 stars 4 stars 5 stars
comments

Tell Me Why Bass Tab

   
Los lonely boys - Tell me why

Bass tab.

Tuning: Eb

Tabbed by Brad (goldie123@dodo.com.au)

All the parts are here... just listen to the song to get the structure. Ive labelled the
riffs with the time that it is first heard in the song. Note: Jojo messes around with his
riffs alot while he's playing, he mainly adds an octave pop on the end of some of the
longer notes, so just beware.


Intro
|------------------------------|
|-/17-\-12-\-8-\-5-\-2---------|
|------------------------------|
|-----------------------0-3-4--|

|---------------------------------------|
|---------7-----------------12----------|
|-------7---7------------12----12-10-12-|
|--5--8-------8-/10---13----------------|

|-------------------------------------------|
|----------7--------------------------------|
|--------7---7------------------10-10-12-12-|
|-3/5--8-------8-/10--10--10-12-------------|

|-------------------------------------------------|
|-----------7-------------------12----------------|
|---------7---7--------------12----12----10-12-12-|
|--3/5--8-------8-/10--10/13----------13----------|

|-----------------------------------------|
|-----7-----------------------------------|
|-------2-3-5---3-5-7-7-7-7-7-7-7-......--|
|-3/5-------------------------------------|

[ Tab from: http://www.guitartabs.cc/tabs/l/los_lonely_boys/tell_me_why_btab.html ]
Main riff
|----------------------------------------|
|-----------7----------------12----------|
|---------7---7-----------12----12-10-12-|
|--3/5--8-------8-/10--13----------------|


0:42
|-----------------|--------------|--------------|
|-----------------|--------------|--------------|
|---7-8-10--------|--6h7-6h7-6h7-|-7-7-7-7-7-7--|
|-8----------8-10-|--------------|--------------|


1:07
|-------------------------------------------------------------------|
|-------------------------------------------------------------------|
|-----------------10-11-12-------------------------10-11-12---------|
|--3-4-5--8-9-10------------8-9-10--3-4-5--8-9-10------------8-9-10-|
(cont.)
|----------------------------------------------------|
|----------------------------------------------------|
|-----------------10-11-12---------------------------|
|--3-4-5--8-9-10------------8-9-10--3-4-0-0-0-0-0...-|


1:47
|----------------------------------------------------------|
|--------7--------7-----------14-----------14-----------12-|
|------7--------7-------11-14--------11-14-----------12----|
|--5-8------5-8------12-----------12-----------10-13-------|
(cont.)
|-----------------------------------------------------------|
|--------10--------12-------12--12-----12-----12-----12-----|
|---7-10--------11-------11-------11-----11-----11-----11---|
|-8----------12-------12------------12-----12-----12-----12-|
Comments