Los Lonely Boys - Senorita Chords & Tabs

 

Senorita Chords & Tabs

Los Lonely Boys Chords & Tabs

Version: 2 Type: Tab 0 ratings
1 star 2 stars 3 stars 4 stars 5 stars
comments

Senorita Tab

   
song: senorita
band:los lonely boys
tabbed by: nb
email: homeostasis6428@yahoo.com

tuning: tune down one half step (low to high:Eb Ab Db Gb Bb Eb).

Whats up nb here, i've been searching for this tab all over the net
and finally found it here at this site but found out it wasn't accurate.
So i decided to take a chance and tab it out myself, and ended up with
this. Listen to cd for timing. PLEASE RATE!
[ Tab from: http://www.guitartabs.cc/tabs/l/los_lonely_boys/senorita_tab_ver_2.html ]
       Am             F                      Dm        E7
e------------0--0-----1--1----1--(1)--1-1-1--1---1-1---0-(0)----------------|
b---x--------1--1-----1--1----1--(1)--1-1-1--3---3-3---3-(3)-3--------------|
g---x--------2--2-----2--2----2--(2)--2-2-2------2-2---1-(1)-1-----0-----0--|
d---x---2----2--2-----3--3----3--(3)--3-3-3----0-------2-(2)-2-------0h2----|
a---------0--0--0-----3--3----3--(3)-------------------2-(2)---0h2----------|
e------------------0--1--1----1--(1)-----------------0-0-(0)----------------|

           Am           F                 Dm      E7      Am
e-------------0--0------1----1-1--1-------1-------0-------0----0------------|
b-------------1--1------1----1-1--1-------3-------3-------1----1------------|
g-------------2--2------2----2-2--2-------2-------1--1----2----2------------|
d-1p0---------2--2------3----3-3--3-------0-------x--x----2----2------------|
a-----3p0--0------------3----3-3-----0-0----------2--2----0--3--------------|
e-------------------0---1----1-1-----0-0-------0--------0-------------------|

i'll tab out the rest of the song soon. Enjoy!
Comments