Los Lonely Boys - More Than Love Chords & Tabs

 

More Than Love Chords & Tabs

Los Lonely Boys Chords & Tabs

Version: 2 Type: Tab 0 ratings
1 star 2 stars 3 stars 4 stars 5 stars
comments

More Than Love Tab

Vamos Mexicanos!

Dropped D tuning.


Intro (Clean)
e|------------------|-3----3---3-3---3---|-3-3-------------|
B|------------------|-3/4--3---4-3---4-4-|-4-3-------------|
G|------------------|-3----3---3-3---3-5-|-3-3-------------|
D|-----------0-1----|------------------6-|-------------0-1-|
A|-----1-1-3--------|--------------------|-------1-1-3-----|
D|------------------|--------------------|-----------------|

e|--3----3---3-3---3---|---3-3---1-------|--3--|
B|--3/4--3---4-3---4-4-|---4-3-----1-----|--4--|
G|--3----3---3-3---3-5-|---3-3-------1---|--3--|
D|-------------------6-|---------------3-|-(1)-|
A|---------------------|-----------------|-----|
D|---------------------|-----------------|-----|

0:14 Verse 1
e|----------|---------------------|-------------|---------------------|
B|----------|---------------------|-------------|---------------------|
G|----------|---------------------|-------------|---------------------|
D|----------|--------------0h1----|-------------|---------------------|
A|----------|----------1-3--------|-------------|-----------3-1-------|
D|----------|------------------1~~|-------------|---------------5-1~~~|
 We were in love before...           But now it's so much more...

0:32 Verse 
e|---------|---------------|--------------|---------|
B|---------|---------------|--------------|---------|
G|---------|---------------|-------------3|---------|
D|---------|---------------|---------3-3--|-----0-1-|
A|---------|---------------|-------1------|-1-3-----|
D|---------|---------------|--------------|---------|
 What I feel in my heart for you...

0:39 
e|--3-------|------3-------|----|--------------
B|--3/4-----|------3-------|-4--|--------------
G|--3-------|------3-------|-5--|--------------
D|----------|--------------|-6--|-----0h1------
A|----------|--------------|----|-1-3----------
D|----------|--------------|----|--------------
       I don't know what I'd do...

0:45 
e|--3-------|---3-----|-------|
B|--3/4-----|---3-----|-4---6-|
G|--3-------|---3-----|-5---7-|
D|----------|---------|-6---8-|
A|----------|---------|-------|
D|----------|---------|-------|
        Baby if I lost you...


[ Tab from: http://www.guitartabs.cc/tabs/l/los_lonely_boys/more_than_love_tab_ver_2.html ]
1:04 Chorus
e|-3---------|-3-----------4----6-------|----3--|---------3-------4----6-|
B|-3/4-------|-3-----------4----6-------|----3/4|---------3-------4----6-|
G|-3---------|-3-----------5----7-------|----3--|---------3-------5----7-|
D|-----------|--------------------------|-------|------------------------|
A|-----------|--------------------------|-------|------------------------|
D|-----------|--------------------------|-------|------------------------|
  I know it's more than love baby I can feel it...  When I'm close to you...

e|--3---------|-3---------4--|-6----------------------|
B|--3/4-------|-3---------4--|-6-------4-4-4-4-4-4---|
G|--3---------|-3---------5--|-7-------3--3-3-3-3-3---|
D|------------|--------------|---------5--5-5-5-5-5---|
A|------------|--------------|------------------------|
D|------------|--------------|------------------------|
  I know it's more than love... Baby do you?

1:26 Bridge      1:29      
e|--------|--------------|-------------|
B|---6----|--------------|-------------|
G|---5----|--------------|-------------|
D|---7----|--------6---8-|---------1/3-|
A|--------|----------8---|-----1/3-----|
D|--------|--------------|-------------|
       ...Don't explain...     

1:38 Solo
E|-------------------|------------------|--------------------|
B|-------------------|------------------|----4h3-3/1-1/3-1~~~|
G|--/3--/3-----------|----------/3--/3--|--3-----------------|
D|--/5--/5--/3/1-3/1-|-----1/3--/5--/5--|--------------------|
A|-------------------|-1/3--------------|--------------------|
D|-------------------|------------------|--------------------|
                                   
e|----3-4-4/6-3------/3-3-41/3----/3-3-1~~-/3-3-----------11-13/15-13--|
B|-/4-----------4-4~------------4~~--------------4~~---/11--------------|
G|----------------------------------------------------------------------|
D|----------------------------------------------------------------------|
A|----------------------------------------------------------------------|
D|----------------------------------------------------------------------|


2:00 Bridge
e|--13~~~|----------------------|---------------------------|
B|-------|----------------------|---------------------------|
G|-------|----------------------|---------------------1---3-|
D|-------|------------3-3/6-3---|-----------------------3---|
A|-------|----------------------|---------------------------|
D|-------|----------------------|---------------------------|
      Maybe...don't explain...    Why I'm feelin' this way...


-verse- silent
-chorus- chords up top.

Final chord: -4356- eBGDAD
Comments