Los Lonely Boys - Hollywood Live Chords & Tabs

 

Hollywood Live Chords & Tabs

Los Lonely Boys Chords & Tabs

Version: 1 Type: Tab 0 ratings
1 star 2 stars 3 stars 4 stars 5 stars
comments

Hollywood Live Tab

From their new live dvd from Austin, Texas

Artist: Los Lonely Boys
Song: Hollywood live
Tabbed by: zep123
email: zepman74@yahoo.com


e--8-8--10-10-10-10-10-10--8-8--10-10-10-10-10-10--|
b--8-8--9--9--9--9--9--9---8-8--9--9--9--9--9--9---|
g--8-8--8--8--8--8--8--8---8-8--8--8--8--8--8--8---|
d--------------------------------------------------|
a--------------------------------------------------|
e--------------------------------------------------|
[ Tab from: http://www.guitartabs.cc/tabs/l/los_lonely_boys/hollywood_live_tab.html ]
e--6-6----6---6--6-----6----6--6-----6----6--6-----6----|
b--6-6----6---6--6-----6----6--6-----6----6--6-----6----|
g--7----7---7h8-----8-----8p7-----7-----7h8-----7----7--|
d-------------------------------------------------------|
a-------------------------------------------------------|
e-------------------------------------------------------|

e--8-8--10-10-10-10-10-10--8-8--10-10-10-10-10-10--|
b--8-8--9--9--9--9--9--9---8-8--9--9--9--9--9--9---|
g--8-8--8--8--8--8--8--8---8-8--8--8--8--8--8--8---|
d--------------------------------------------------|
a--------------------------------------------------|
e--------------------------------------------------|

e--6-6----6---6--6-----6----6--6-----6----6--6-----6----|
b--6-6----6---6--6-----6----6--6-----6----6--6-----6----|
g--7----7---7h8-----8-----8p7-----7-----7h8-----7----7--|
d-------------------------------------------------------|
a-------------------------------------------------------|
e-------------------------------------------------------|

just a basic riff to this song, enjoy
Comments