Los Lonely Boys - Heaven Chords & Tabs

 

Heaven Chords & Tabs

Los Lonely Boys Chords & Tabs

Version: 7 Type: Tab 0 ratings
1 star 2 stars 3 stars 4 stars 5 stars
comments

Heaven Tab

   
-------------------------------------------------------------------------------
			     SONG NAME - Band Name
-------------------------------------------------------------------------------
Tabbed by: Brian Arnold
Email: baseball636@go.com

Tuning:EADGBe

First Solo

e|----------------|------------------|--------9-|-11-9-----------------|
B|--------------9-|11-9--------------|----------|-------11-9-----------|
G|-11---11--------|-----11-8-11------|11-8------|------------11-11-----|
D|----------------|------------------|----------|----------------------|
A|----------------|------------------|----------|----------------------|
E|----------------|------------------|----------|----------------------|

e|------------------|-----------------|---------------|
B|---9-11-12-12/11--|-9-11-11/9-------|---------9-----|
G|-8----------------|-----------11-8--|-11-11-8---8-8-|
D|------------------|-----------------|---------------|
A|------------------|-----------------|---------------|
E|------------------|-----------------|---------------|

2nd Solo

e|-9-7--6-|-------|----------|-------------|--------|-7---6------|
B|--------|-7-----|-------7--|----------7--|--------|--------7---|
G|--------|----6--|----------|-------------|--6-7-8-|------------|
D|--------|-------|--8-9-----|-8--9--8-----|--------|------------|
A|--------|-------|----------|-------------|--------|------------|
E|--------|-------|----------|-------------|--------|------------|

3rd Solo

e|-11-|-9-----------|--------------|---------------|-----------------------------|
B|----|---11-9------|--------------|-9-11-11-12-11-|-11-12-11-9-11-12/11-9-------|
G|----|--------11-8-|-11---11-8-11-|---------------|-----------------------11----|
D|----|-------------|--------------|---------------|-----------------------------|
A|----|-------------|--------------|---------------|-----------------------------|
E|----|-------------|--------------|---------------|-----------------------------|

e|--------------|-9---------------|-11----------|-------------------|---9---------|
B|--------------|-----------------|----12-11-11-|-9---------9-11----|-------------|
G|--8---11-8-11-|---11-11-11---11-|-------------|---11-8-11------11-|-------------|
D|--------------|-----------------|-------------|-------------------|-8---8-11-11-|
A|--------------|-----------------|-------------|-------------------|-------------|
E|--------------|-----------------|-------------|-------------------|-------------|

e|-----------------------|-------------------------|---------------14-14-------|
B|-----------11-12-13-14-|-------11-12-13-14-------|-11-12-13-14---------------|
G|---11-8-11-------------|-------------------------|---------------------------|
D|-----------------------|-------------------------|---------------------------|
A|-----------------------|-------------------------|---------------------------|
E|-----------------------|-14-14-------------14-14-|---------------------------|

e|----|-----------------|-----------------------------------|
B|-12-|-11---9-11-11-11-|-12-11-9-11-9----------------------|
G|----|----8------------|--------------11-13-11----11-------|
D|----|-----------------|-----------------------13----13-11-|
A|----|-----------------|-----------------------------------|
E|----|-----------------|-----------------------------------|
[ Tab from: http://www.guitartabs.cc/tabs/l/los_lonely_boys/heaven_tab_ver_7.html ]
e|-------------------------------------|------|
B|-------------------------------------|------|
G|-------------------------------------|------|
D|-13-11----11-------------------------|------|
A|-------13----13-11-13-11----11-------|------|
E|-------------------------14----14-11-|-14---|

Ending Solo

e|----------------------|-----------------|---------------------|-------------|
B|----------------------|-----------------|---------------------|-------------|
G|----------------------|-----------------|---------------------|-------------|
D|-11-11----11--11--11--|--------11-11-11-|---------------11-13-|-11-9-8-8-8--|
A|-------13-------------|-----13----------|-14-14-14-14---------|-------------|
E|----------------------|-----------------|---------------------|-------------|

e|---------------|-------------|----------------|---6-7-6----|-------------------|
B|------------7--|----------7--|-------------7--|-9--------9-|-------------------|
G|--------6-8----|-8----6-8----|-8-----6--8-----|------------|-------------------|
D|-8--8-8--------|-------------|----------------|------------|-11-11-8-11-11-11--|
A|---------------|----9--------|----9-----------|------------|-------------------|
E|---------------|-------------|----------------|------------|-------------------|

e|-------------|----------------|-----------------|-----------------|---------------|
B|-------------|----------------|-----------------|-----------------|------------11-|
G|-------------|--------------8-|-----------------|-3------------11-|-13-11---13----|
D|-----11-8-11-|-9-9-9-9--11----|-11--9-8---------|11--8-8-11-13----|---------------|
A|-------------|----------------|---------9-11----|-9---------------|---------------|
E|-------------|----------------|--------------11-|-----------------|---------------|

e|-----------------9-|-11-11-9-9-7-7-6---|-----11-|-9-----------|-------------------|
B|-12-11-9-11--12----|-----------------7-|--------|---11-9------|----9-11-11--12----|
G|-------------------|-------------------|--------|--------11-8-|-11-------------11-|
D|-------------------|-------------------|--------|-------------|-------------------|
A|-------------------|-------------------|--------|-------------|-------------------|
E|-------------------|-------------------|--------|-------------|-------------------|

e|-----------------|--------------------------------|--------------------------|
B|-------11-9------|----9-11-12-11-11h12p11-9-11-12-|-14-12-11-12-14-12-11-14--|
G|--8-11------11-8-|-11-----------------------------|--------------------------|
D|-----------------|--------------------------------|--------------------------|
A|-----------------|--------------------------------|--------------------------|
E|-----------------|--------------------------------|--------------------------|

e|-11-14-11-14---14-11-14-|-18-18-18-----|-----------|--------------------------|
B|------------------------|--------------|-----------|--------------------------|
G|------------------------|--------------|-----15-15-|-13-11----11--------------|
D|------------------------|-----------16-|--13-------|-------13----13-11--------|
A|------------------------|--------------|-----------|--------------------------|
E|------------------------|--------------|-----------|--------------------------|

e|--------------------|-------------|
B|--------------11----|-------------|
G|----11-----11---11--|--8----------|
D|-13----13-----------|-------------|
A|--------------------|-------------|
E|--------------------|-------------|

| /  slide up
| \  slide down
| h  hammer-on
| p  pull-off
| ~  vibrato
| +  harmonic
| x  Mute note
===============================================================================
Comments