Los Lonely Boys - Heaven Chords & Tabs

 

Heaven Chords & Tabs

Los Lonely Boys Chords & Tabs

Version: 5 Type: Tab 0 ratings
1 star 2 stars 3 stars 4 stars 5 stars
comments

Heaven Tab

   
Los Lonely Boys
Self Titled CD
Heaven
Tabbed by: the great LA BAMBA

www.loslonelyboys.org
Hey, I got this out the the May issue of Guitar World (but I swear I had it by ear 
it came out) so I'm not taking any credit, only for tabbing it. This is only the intro but im 
on tabbing the whole song so plan it on coming out in about 2-3 weeks (it was a huge
pain to tab even just this :D). So if you're not satisfied, go get the magazine yourself. Enjoy!

Tuning: 1/2 step down (Eb, Ab, Db, Gb, Bb, Eb)
Moderately Slow Rock, 4/4 quarter note= 92

Intro (X2):
Gtr.1 (elec. w/dirty tone)
E|--7~-7-------8/10-10-10-10-10-10-10-10/8--8-----|
B|--8~-8------10/12-12-12-12-12-12-12-12/10-10----|
G|------------------------------------------------|
D|------------------------------------------------|
A|------------------------------------------------|
E|------------------------------------------------|


E|--12--12--12--12--12--12-10----10---------------|
B|--13--13--13--13--13--13-12-12-12---------------|
G|------------------------------------------------|
D|------------------------------------------------|
A|------------------------------------------------|
E|------------------------------------------------|


E|--10--10--10--10--10--8-----8-------------------|
B|--12--12--12--12--12-10-10-10-------------------|
G|------------------------------------------------|
D|------------------------------------------------|
A|------------------------------------------------|
E|------------------------------------------------|
		"Vamanos!"


E|--10--12--12--10-10-----8-7---------------------|
B|--12--13--13--12----10--------------------------|
G|------------------------------------------------|
D|------------------------------------------------|
A|------------------------------------------------|
E|------------------------------------------------|


1st Guitar Solo (0:21)
Gtr.1
E|--7~--7--x--x---------------------------x-------|
B|--8~--8--------x-----10b1110/8----8+++---------|
G|--------------------x------------9--------------|
D|-------------------x----------------------------|
A|------------------------------------------------|
E|------------------------------------------------|
[ Tab from: http://www.guitartabs.cc/tabs/l/los_lonely_boys/heaven_tab_ver_5.html ]

Gtr. 2
E|--3---3---------3-----3-----3--3--3--3----------|
B|--3---3------x--3-----3-----3--3--3--3----------|
G|--4---4------x--5-----5-----4--4--4--4----------|
D|--5---5------------------------5--5--5----------|
A|------------------------------------------------|
E|------------------------------------------------|


Gtr.1
E|--------------------------10b11---10-----------------|
B|--8------x--x--x--0---x---------------0---10b1110/8-|
G|------9-----------0-------------------0--------------|
D|-----(0)----------0----------------------------------|
A|-----------------------------------------------------|
E|-----------------------------------------------------|


Gtr.2
E|--5----5-----------5------5-----5---------5-----5--|
B|--5----5-------x---5------5-----5---------5-----5--|
G|--5----5-------x---7------7-----5---------7-----5--|
D|--7------------------------------------------------|
A|---------------------------------------------------|
E|---------------------------------------------------|


Gtr.1
E|------------------7---8---8/7--------7---------------------|
B|--8-------8---10----------------10-------10b11(10)--8------|
G|-------9------------------------------------------------9--|
D|-----------------------------------------------------------|
A|-----------------------------------------------------------|
E|-----------------------------------------------------------|


Gtr.2
E|--3-------3---------------3------3----3---3-------------3---3--|
B|--3-------3---------------3------3----3---3-------------3---3--|
G|--4-------4---------------4/5----4----4---4-------------4---4--|
D|--5-------5---------------------------5---5-------------5---5--|
A|---------------------------------------------------------------|
E|---------------------------------------------------------------|


Gtr.1                                   1)Save...
E|---------------------------------------------------------------|
B|--8--8--------10--8-------0---8\-------------------------------|
G|--------9--x---x------9---7------------------------------------|
D|---------------0-----------------------------------------------|
A|---------------------------------------------------------------|
E|---------------------------------------------------------------|
Comments