Los Lonely Boys - Heaven Chords & Tabs

 

Heaven Chords & Tabs

Los Lonely Boys Chords & Tabs

Version: 4 Type: Tab 0 ratings
1 star 2 stars 3 stars 4 stars 5 stars
comments

Heaven Tab

This is actually the first and second solo.
[ Tab from: http://www.guitartabs.cc/tabs/l/los_lonely_boys/heaven_tab_ver_4.html ]
1st solo
e-6-6---------------------9-9fb-9---------------6h7-7p6--6-------------------|
b-7-7--9fb-9-7---7---77-----------9fb-9-7---7h9---------9--9fb-9-7---7-7-----|
g--------------8---8----8-----------------8------------------------8----8----|
d----------------------------------------------------------------------------|
a----------------------------------------------------------------------------|
e----------------------------------------------------------------------------|

e------------|
b-9-7-----7\-|
g-----8-6----|
d------------|
a------------|
e------------|

2nd solo
e---9-7-6--------------------------7-6---|
b---------7-------7--------7-----------7-|
g-----------6-----------------6h8--------|
d-------------8-9---8-9-8-9--------------|
a----------------------------------------|
e----------------------------------------|
Comments