Los Lonely Boys - Heaven Chords & Tabs

 

Heaven Chords & Tabs

Los Lonely Boys Chords & Tabs

Version: 3 Type: Tab 0 ratings
1 star 2 stars 3 stars 4 stars 5 stars
comments

Heaven Tab

-------------------------------------------------------------------------------
			     Heaven - Los Lonely Boys-www.loslonelyboys.org
-------------------------------------------------------------------------------
Tabbed by: Trevor

Tuning: Standard

Hey guys.  I am 14 and this is my first tab.  I know it's not perfect and probably more 
this is just the intro and 1st solo.  It sounded right as I played along.  Here's what I 
up with.

Intro

e|---------------------------------------------------------------------------|
B|--11--11----14-14-14-14-14-14---12-12----16-16-16-16-16-16----14-14-14-----|
G|--11--11----15-15-15-15-15-15---13-13----16-16-16-16-16-16----15-15-15-----|
D|---------------------------------------------------------------------------|
A|---------------------------------------------------------------------------|
E|---------------------------------------------------------------------------|
[ Tab from: http://www.guitartabs.cc/tabs/l/los_lonely_boys/heaven_tab_ver_3.html ]
e|---------------------------------------------------------------------------|
B|--14-14-14-14---12-12--14--16-16--14--12---x2------------------------------|
G|--15-15-15-15---13-13--15--16-16--15--13-----------------------------------|
D|---------------------------------------------------------------------------|
A|---------------------------------------------------------------------------|
E|---------------------------------------------------------------------------|

1st Solo
e|---------------------------------------------------------------------------|
B|---14-12-11----------------------------------------------------------------|
G|------------11---------11---------11---------------------------------------|
D|---------------11--8-9------8-9-8------------------------------------------|
A|---------------------------------------------------------------------------|
E|---------------------------------------------------------------------------|
Comments