Los Lonely Boys - Heaven Chords & Tabs

 

Heaven Chords & Tabs

Los Lonely Boys Chords & Tabs

Version: 2 Type: Tab 0 ratings
1 star 2 stars 3 stars 4 stars 5 stars
comments

Heaven Tab

   
HEAVEN
                         As recorded by Los Lonely Boys
                      (From the 2003 Album LOS LONELY BOYS)

Words and Music by Henry, JoJo, and Ringo Garza

           G                  Gsus4                 Am                  Asus4
      x x 5 4 3 3          x x x 5 3 3          x x 7 5 5 5          x x x 7 5 5

        Amadd9                 Bbm                  Bm                    F
      x x x 5 5 7          x x 8 6 6 6          x x 9 7 7 7          1 3 3 2 1 1

           C                    D
      x 3 2 0 1 0          x x 0 2 3 2

Gtr I (Eb Ab Db Gb Bb Eb) - 'elec. with dirty tone'
Gtr II (Eb Ab Db Gb Bb Eb) - 'elec. with dirty tone'

 Intro
  Moderately Slow Rock Q=92(16=s16)
  N.C.
 4/4
  Gtr I
  ~
|-7-7-----8s10-10-10-10-10-10-|-10s=8--8--12--12--12--12--12-|
|-8-8----10s12-12-12-12-12-10-|-12s10-10--13--13--13--13--13-|
|-----------------------------|------------------------------|
|-----------------------------|------------------------------|
|-----------------------------|------------------------------|
|-----------------------------|------------------------------|


|-12-10----10----10--10--10--10---|
|-13-12-12-12----12--12--12--12---|
|---------------------------------|
|---------------------------------|
|---------------------------------|
|---------------------------------|


|-10--8-----8--10--12--12--10-10----8-7-|
|-12-10-10-10--12--13--13--12----10-----|
|---------------------------------------|
|---------------------------------------|
|---------------------------------------|
|---------------------------------------|


  G                                   Am
  Gtrs I, II
  ~
|-7-7--x-x-x----8s10-10-10-10-10-10-|-10s=8--8--x-x-12--12--12--12--12-|
|-8-8--------x-10s12-12-12-12-12-12-|-12s10-10------13--13--13--13--13-|
|-----------------------------------|----------------------------------|
|-----------------------------------|----------------------------------|
|-----------------------------------|----------------------------------|
|-----------------------------------|----------------------------------|


  G
|-12s10----10--x-x-x---10--10--10--10-|
|-13s12-12-----------x-12--12--12--12-|
|-------------------------------------|
|-------------------------------------|
|-------------------------------------|
|-------------------------------------|


  Am
|-10--8-----8--10--12--12--10-10----8---||
|-12-10-10-10--12--13--13--12-12-9-10-8-||
|----------------------------------------||
|----------------------------------------||
|----------------------------------------||
|----------------------------------------||


 1st Guitar Solo
  G       Gsus4
  Gtr I
  ~                          ~
|-7-7-x-x--------------------------x-|
|-8-8-----x-----10b12-10p8---8-------|
|-------------x------------9---------|
|-----------x------------------------|
|------------------------------------|
|------------------------------------|
|
| Gtr II
|-3-3-----3------3-----3-3---3-3-3---|
|-3-3---x-3------3-----3-3---3-3-3---|
|-4-4---x-5------5-----4-4---4-4-4---|
|-5-5--------------------5---5-5-5---|
|------------------------------------|
|------------------------------------|


  Am            Asus4     Am     Asus4 Am
                                            ~
|-------------------10b12---10----------------|
|-8-------x-x-x-0-x------------0-10b12-10p8-8-|
|----9----------0--------------0--------------|
|---(0)---------0-----------------------------|
|---------------------------------------------|
|---------------------------------------------|
|
|-5-----5-------5---(5)---5--5----5-----5-5---|
|-5-----5-----x-5---(5)---5--5----5-----5-5---|
|-5-----5-----x-7---(7)---5--5----7-----5-5---|
|-7---------------------------------------7---|
|---------------------------------------------|
|---------------------------------------------|


  G                GsusG                       Am
   ~~~
|------------7-8-7h8p7----7------------------|------------------------||
|-(8)---8-10-----------10---10b12r(10)-8-----|-8-8-----10-8---0-8----||
|-----9----------------------------------9---|-----9-x--x---9-7-------||
|--------------------------------------------|----------0-------------||
|--------------------------------------------|------------------------||
|--------------------------------------------|------------------------||
|
|--3----3----------3----3-3---------3----3-3-|-5-----5--5-5-5-5-5-----||
|--3----3----------3----3-3---------3----3-3-|-5-----5--5-5-5-5-5-----||
|--4----4----------4h5--4-4---------4----4-4-|-5-----5--5-5-5-5-5-----||
|--5----5-----------------5---------5----5-5-|-7-----7--7-7-7-7-7-----||
|--------------------------------------------|------------------------||
|--------------------------------------------|------------------------||


 1st Verse
  G    GsusG             Am
  Gtr I
                              PM---------------------
|----------------------|----------------------------|
|----------------------|----------------------------|
|----------------------|----------------------------|
|----------------------|-------------5--5-----5-5---|
|----------------------|------x-7---------7-------7-|
|----------------------|----------------------------|
|
| Gtr II
|-3-3--3---3-3-3-3-3-3-|-5-5------5-(5)-5---5-5-5---|
|-3-3--3---3-3-3-3-3-3-|-5-5------5-(5)-5---5-5-5---|
|-4-4--4h5-4-4-4-4-4-4-|-5-5------5-(5)-5---5-5-5-0-|
|-5-5--------5-5-5-5-5-|-7--------7-(7)-7---7-7-7-0-|
|----------------------|--------------------------0-|
|----------------------|----------------------------|


  G        GsusG
 ------------------------|
|-----------------------------|
|-----------------------------|
|-----------------------------|
|------------5-------5--------|
|------x-7-------7-------7----|
|-----------------------------|
|
|-3-3------3---3-3-3-3-3-3-5--|
|-3-3------3---3-3-3-3-3-3-5--|
|-4-4------4h5-4-4-4-4-4-4-5--|
|-5-5------------5-5-5-5-5----|
|-----------------------------|
|-----------------------------|


  Am         N.C.                G        GsusG
             PM----------------------------------------------
|------------------------------|----------------------------|
|------------------------------|----------------------------|
|------------------------------|----------------------------|
|--------------5-5-----5-------|------------5-------5-------|
|------------7-----7-------7---|------5-7-------7-------7---|
|------------------------------|----------------------------|
|
|-5-5-5-5----------------------|-3-3------3---3-3-3-3-3-3-3-|
|-5-5-5-5----------------------|-3-3------3---3-3-3-3-3-3-3-|
|-5-5-5-5--x---5-5---5-7-5---5-|-4-4------4h5-4-4-4-4-4-4-4-|
|-7-7-7-7----7-----7-------7---|-5-5------------5-5-5-5-5-5-|
|------------------------------|----------------------------|
|------------------------------|----------------------------|


  Am           AsusAm    AsusAm
 ------------------------------|
|------------------------------------|
|------------------------------------|
|------------------------------------|
|----------------5-------5-----------|
|----------5-7-------7---------7-----|
|------------------------------------|
|
|-5-5-5-5--5-5-5---5-5-5-5---5-5-----|
|-5-5-5-5--5-5-5---5-5-5-5---5-5-x---|
|-5-5-5-5--5-5-5h7-5-5-5-5h7-5-5-x---|
|-7-7-7-7--7-7-----------------------|
|------------------------------------|
|------------------------------------|


  G        GsusG               Am
       PM----------------------------------------|
|----------------------------|------------------------||
|----------------------------|------------------------||
|----------------------------|------------------------||
|------------5-5-----5-5-----|-------------5-----5----||
|------5-7-------7-------7---|---------------7--------||
|----------------------------|------------------------||
|
|-3-3------3---3-3-3-3-3-3-3-|-5-5-5-5-(5)-5-5-5-5----||
|-3-3------3---3-3-3-3-3-3-3-|-5-5-5-5-(5)-5-5-5-5----||
|-4-4------4h5-4-4-4-4-4-4-4-|-5-5-5-5-(5)-5-5-5-5----||
|-5-5------------5-5-5-5-5-5-|-7-7-7-7-(7)-7-7-7-7----||
|----------------------------|------------------------||
|----------------------------|------------------------||


 1st Chorus
  G        GsusG
       PM----------------|
|------------------------------|
|------------------------------|
|------------------------------|
|------------5-5-----5---------|
|------5-7-------7-------7-----|
|------------------------------|
|
|-3-3------3---3-3-3-3-3-3-3---|
|-3-3------3---3-3-3-3-3-3-3---|
|-4-4------4h5-4-4-4-4-4-4-4---|
|-5-5------------5-5-5-5-5-5---|
|------------------------------|
|------------------------------|


  Am       Asus4       Am      G        GsusG
       PM-------------------------------------------|
|----------------------------|--------------------------|
|----------------------------|--------------------------|
|----------------------------|--------------------------|
|------------5-5-----5-5-----|------------5-----5-------|
|------x-7-------7-------7---|------x-7-------7-----7---|
|----------------------------|--------------------------|
|
|-5-5------5---5-5-5-5-5-5-5-|-3-3------3---3-3-3-3-3-3-|
|-5-5------5---5-5-5-5-5-5-5-|-3-3------3---3-3-3-3-3-3-|
|-5-5----x-6h7-7-7-7-7-5-5-5-|-4-4------4h5-4-4-4-4-4-4-|
|-7-7----x-------------------|-5-5------------5-5-5-5-5-|
|----------------------------|--------------------------|
|----------------------------|--------------------------|


  Am
           PM--------------|
|------------------------------|
|------------------------------|
|------------------------------|
|--------------5-5-----5-------|
|----------7-------7-------7---|
|------------------------------|
|
|        PM------------------|
|-5-5-5------------------------|
|-5-5-5------------------------|
|-5-5-5------------------------|
|-7-7-7--x---x-5-5---5-5-5---x-|
|----------7-------7-------7---|
|------------------------------|


  G        GsusG             Am              Amadd9    Am  G
  PM-----------------------------------------------------|
|--------------------------|---------------------------------|
|--------------------------|---------------------------------|
|--------------------------|---------------------------------|
|------------5-----5-------|-------------------5-----5-------|
|------5-7-------7-----7---|-------------5-7-----7-------7---|
|--------------------------|---------------------------------|
|
|-3-3------3---3-3-3-3-3-3-|-5-5-5-5-(5)-5-5-5h7-7-7-7-3-----|
|-3-3------3---3-3-3-3-3-3-|-5-5-5-5-(5)-5-5-5---5-5-5-3-x-3-|
|-4-4------4h5-4-4-4-4-4-4-|-5-5-5-5-(5)-5-5-5---5-5-5-5-x-4-|
|-5-5------------5-5-5-5-5-|-7-7-7-7-(7)-7-7---------------5-|
|--------------------------|---------------------------------|
|--------------------------|---------------------------------|


               GsusG
           PM--------------|
|----------------------------|
|----------------------------|
|----------------------------|
|----------------5-5---5-5---|
|----------5-7-------7-----7-|
|----------------------------|
|
|-3-3-3-3------3---3-3-3-3-3-|
|-3-3-3-3------3---3-3-3-3-3-|
|-4-4-4-4------4h5-4-4-4-4-4-|
|-5-5-5-5------------5-5-5-5-|
|----------------------------|
|----------------------------|


                     2nd Guitar Solo
  Am                  G
  PM----------|                        ~~~~~~
|------------------||-----10-8-7-------------------|
|------------------||--------------8---------------|
|------------------||------------------7-(7)-------|
|-------5-----5----||------------------------------|
|---------7--------||------------------------------|
|------------------||------------------------------|
|
|-5-5-5-5-5-5-5----||-3-3------3---3-3-3--3--3-3-3-|
|-5-5-5-5-5-5-5----||-3-3------3---3-3-3--3--3-3-3-|
|-5-5-5-5-5-5-5----||-4-4------4h5-4-4-4--4--4-4-4-|
|-7-7-7-7-7-7-7----||-5-5------------5-5--5--5-5-5-|
|------------------||------------------------------|
|------------------||------------------------------|


  Am
                              ~
|-------------------------------|
|-------------8---------------8-|
|-(7)---7-5-------4---5---4-----|
|-------------------------------|
|-------------------------------|
|-------------------------------|
|
|--5--5-------5---5-5-5-5-5-5-5-|
|--5--5-------5---5-5-5-5-5-5-5-|
|--5--5-----x-6h7-7-7-7-7-5-5-5-|
|--7--7-----x-------------------|
|-------------------------------|
|-------------------------------|


  G                            Am
   ~~~~~~~~~~~~~~~~~~~~                  ~~~~~~
|----------------------------|-8---7-7------------------------||
|-(8)--------------(8)-------|-----------8-(8)----------------||
|------------------------7s9-|--------------------------------||
|----------------------------|--------------------------------||
|----------------------------|--------------------------------||
|----------------------------|--------------------------------||
|
|--3--3--3---3-3-3--3--3-3-3-|-5-5-------5-----5-5-5-5-5-5-5--||
|--3--3--3---3-3-3--3--3-3-3-|-5-5-------5-----5-5-5-5-5-5-5--||
|--4--4--4h5-4-4-4--4--4-4-4-|-5-5-----x-6h=7--7-7-7-7-5-5-5--||
|--5--5--------5-5--5--5-5-5-|-7-7-----x----------------------||
|----------------------------|--------------------------------||
|----------------------------|--------------------------------||


 2nd Verse
  G    GsusG             Am
  Gtr I
                              PM---------------------
|----------------------|----------------------------|
|----------------------|----------------------------|
|----------------------|----------------------------|
|----------------------|-------------5--5-----5-5---|
|----------------------|------x-7---------7-------7-|
|----------------------|----------------------------|
|
| Gtr II
|-3-3--3---3-3-3-3-3-3-|-5-5------5-(5)-5---5-5-5---|
|-3-3--3---3-3-3-3-3-3-|-5-5------5-(5)-5---5-5-5---|
|-4-4--4h5-4-4-4-4-4-4-|-5-5------5-(5)-5---5-5-5-0-|
|-5-5--------5-5-5-5-5-|-7--------7-(7)-7---7-7-7-0-|
|----------------------|--------------------------0-|
|----------------------|----------------------------|


  G        GsusG
 ------------------------|
|-----------------------------|
|-----------------------------|
|-----------------------------|
|------------5-------5--------|
|------x-7-------7-------7----|
|-----------------------------|
|
|-3-3------3---3-3-3-3-3-3-5--|
|-3-3------3---3-3-3-3-3-3-5--|
|-4-4------4h5-4-4-4-4-4-4-5--|
|-5-5------------5-5-5-5-5----|
|-----------------------------|
|-----------------------------|


  Am         N.C.                G        GsusG
             PM----------------------------------------------
|------------------------------|----------------------------|
|------------------------------|----------------------------|
|------------------------------|----------------------------|
|--------------5-5-----5-------|------------5-------5-------|
|------------7-----7-------7---|------5-7-------7-------7---|
|------------------------------|----------------------------|
|
|-5-5-5-5----------------------|-3-3------3---3-3-3-3-3-3-3-|
|-5-5-5-5----------------------|-3-3------3---3-3-3-3-3-3-3-|
|-5-5-5-5--x---5-5---5-7-5---5-|-4-4------4h5-4-4-4-4-4-4-4-|
|-7-7-7-7----7-----7-------7---|-5-5------------5-5-5-5-5-5-|
|------------------------------|----------------------------|
|------------------------------|----------------------------|


  Am
 ------------------------------|
|------------------------------------|
|------------------------------------|
|------------------------------------|
|----------------5-------5-----------|
|----------5-7-------7---------7-----|
|------------------------------------|
|
|-5-5-5-5--5-5-5---5-5-5-5---5-5-----|
|-5-5-5-5--5-5-5---5-5-5-5---5-5-x---|
|-5-5-5-5--5-5-5h7-5-5-5-5h7-5-5-x---|
|-7-7-7-7--7-7-----------------------|
|------------------------------------|
|------------------------------------|


  G        GsusG
       PM---------------------
|----------------------------|
|----------------------------|
|----------------------------|
|------------5-5-----5-5-----|
|------5-7-------7-------7---|
|----------------------------|
|
|-3-3------3---3-3-3-3-3-3-3-|
|-3-3------3---3-3-3-3-3-3-3-|
|-4-4------4h5-4-4-4-4-4-4-4-|
|-5-5------------5-5-5-5-5-5-|
|----------------------------|
|----------------------------|


                                2nd Chorus
  Am        Asus4     Am         G        GsusG
 ---------------------------|         PM----------------|
|-----------------------------||----------------------------|
|-----------------------------||----------------------------|
|-----------------------------||----------------------------|
|-------------5-5-----5---7s9-||------------5-5-----5-------|
|-------5-7-------7-----------||------5-7-------7-------7---|
|-----------------------------||----------------------------|
|
|-5-5-5-5-5-5---5-5-5-5-------||-3-3------3---3-3-3-3-3-3-3-|
|-5-5-5-5-5-5---5-5-5-5-x-0---||-3-3------3---3-3-3-3-3-3-3-|
|-5-5-5-5-5-5h7-7-7-7-5-x-0---||-4-4------4h5-4-4-4-4-4-4-4-|
|-7-7-7-7-7-------------------||-5-5------------5-5-5-5-5-5-|
|-----------------------------||----------------------------|
|-----------------------------||----------------------------|


  Am       Asus4       Am      G        GsusG
       PM-------------------------------------------|
|----------------------------|--------------------------|
|----------------------------|--------------------------|
|----------------------------|--------------------------|
|------------5-5-----5-5-----|------------5-----5-------|
|------x-7-------7-------7---|------x-7-------7-----7---|
|----------------------------|--------------------------|
|
|-5-5------5---5-5-5-5-5-5-5-|-3-3------3---3-3-3-3-3-3-|
|-5-5------5---5-5-5-5-5-5-5-|-3-3------3---3-3-3-3-3-3-|
|-5-5----x-6h7-7-7-7-7-5-5-5-|-4-4------4h5-4-4-4-4-4-4-|
|-7-7----x-------------------|-5-5------------5-5-5-5-5-|
|----------------------------|--------------------------|
|----------------------------|--------------------------|


  Am
        PM----|
|-------------------------10b12---||
|---------------------------------||
|---------------------------------||
|-------------5---x---------------||
|-------5-7-----------------------||
|---------------------------------||
|
|-5-5-5-5-5-5---5-5-5-5-----------||
|-5-5-5-5-5-5---5-5-5-5-x--0------||
|-5-5-5-5-5-5h7-7-7-7-5-x--0------||
|-7-7-7-7-7-----------------------||
|---------------------------------||
|---------------------------------||


 3rd Guitar Solo
  G
                            ~
|-(10)-10-----------------------------------|
|-----------10pb12r(10)p8---8-----(8)-8---8-|
|-------------------------9-------------7---|
|-------------------------------------------|
|-------------------------------------------|
|-------------------------------------------|
|
|---3-----3---------------3---3-3--3--3-3-3-|
|---3-----3---------------3---3-3--3--3-3-3-|
|---4-----4---------------4h5-4-4--4--4-4-4-|
|---5-----5---------------------5--5--5-5-5-|
|-------------------------------------------|
|-------------------------------------------|

[ Tab from: http://www.guitartabs.cc/tabs/l/los_lonely_boys/heaven_tab_ver_2.html ]
  Am                                               G
                                                ~~~PM                ~~~~~~
|-------7-8------7--8p7----7--------------|------------10------------------|
|-10b12----10b12--------10---10pb12r(10)p8|(8)-----8------8-8-8-(8)-8-x-x--|
|-----------------------------------------|----9-----9---------------------|
|-----------------------------------------|--------------------------------|
|-----------------------------------------|--------------------------------|
|-----------------------------------------|--------------------------------|
|
|--5------5---------5-(5)-5----5-5--5------|-3--3---3----3-3-3--3--3-3-5---|
|--5------5---------5-(5)-5----5-5--5------|-3--3---3----3-3-3--3--3-3-5---|
|--5------5---------5-(5)-5----5-5--5---0--|-4--4---4h=5-4-4-4--4--4-4-5---|
|--7----------------7-(7)-7----7-7--7---0--|-5--5----------5-5--5--5-5-----|
|---------------------------------------0--|-------------------------------|
|------------------------------------------|-------------------------------|


  Am                                         G
                                         ~~~~~~~~           ~~~~~~
|x-10s12--8--7-------------------7--|-------10-0---------------------8-9-10|
|--------------10b12-10-8---8-10---8|(8)---------8-8-(8)-8---8-10b12-------|
|-------------------------9---------|----9-----------------9---------------|
|-----------------------------------|--------------------------------------|
|-----------------------------------|--------------------------------------|
|-----------------------------------|--------------------------------------|
|
|-5-----5-5-5--------------------------|-3---3----3-----3-3----3----3-3--3-|
|-5-----5-5-5--------------------------|-3---3----3-----3-3----3----3-3--3-|
|-5-----5-5-5--x-----5--5---5-7--5---5-|-4---4----4h=5--4-4----4----4-4--4-|
|-7-----7-7-7----7--------7--------7---|-5---5------------5----5----5-5--5-|
|--------------------------------------|-----------------------------------|
|--------------------------------------|-----------------------------------|


  Am
|---0---------8-9-10---0---------8-9-10---15---15---|
|---0---10b12----------0---10b12--------------------|
|-9-0-x--------------0-0-x--------------------------|
|---------------------------------------------------|
|---------------------------------------------------|
|---------------------------------------------------|
|
|-5-----------5--------5---(5)---5----5-5--5--------|
|-5-----------5--------5---(5)---5----5-5--5--------|
|-5-----------5--------5---(5)---5----5-5--5-0------|
|-7--------------------7---(7)---7----7-7--7-0------|
|--------------------------------------------0------|
|---------------------------------------------------|


  G
|-(15)----8---7---0----7-7-7-|
|------------------0-10-------|
|-----------------------------|
|-----------------------------|
|-----------------------------|
|-----------------------------|
|
|---3---3--3---3-3-3--3-3-3-5-|
|---3---3--3---3-3-3--3-3-3-5-|
|---4---4--4h5-4-4-4--4-4-4-5-|
|---5---5--------5-5--5-5-5---|
|-----------------------------|
|-----------------------------|

                                                                    Bridge
  Am                                                                 Am        Bbm
                                                PM--------|
|-8-7-----7--------------------------------------------------||-5-5---5--6-|
|------10---10--8-10--8----8---------------------------------||-5-5---5--6-|
|------------------------9---9---7-9-7----7------------------||-5-5---5--6-|
|---------------------------------------9---9---7-7-5----5---||-7-7---7--8-|
|------------------------------------------------------7---0-||------------|
|------------------------------------------------------------||------------|
|
|-5---5---5--(5)------------------------------------------||-5-5----5--6---|
|-5---5---5--(5)--x---x---x---x---x---x---x---x---x---x-x-||-5-5----5--6---|
|-5---5---5--(5)--x---x---x---x---x---x---x---x---x---x-x-||-5-5----5--6---|
|-7---7---7--(7)--x---x---x---x---x---x---x---x---x---x-x-||-7-7----7--8---|
|---------------------------------------------------------||---------------|
|---------------------------------------------------------||---------------|


  Bm                              F       C
|-7-7-(7)---7-(7)-----7---------|-1-1-1---0--0-0---|
|-7---------------7-------------|-1-1-1---1--1-1---|
|-7-------7---------7-----x-----|-2-2-2---0--0-0-0-|
|-9---------------------9-x---x-|-3-3-3---2--2-2---|
|---------------------------0---|-3-3-3-2-3--3-3---|
|---------------------------0---|-1-1-1-0----------|


  D
|-2--------|---x--------------------||
|-3--------|-----x------------------||
|-2--------|-------x----------------||
|-0--------|---------x--------------||
|----------|-----------x------------||
|----------|-------------x-20------||


 3rd Verse
  G        GsusG             Am
  Gtr I
       PM--------------|          PM---------------------
|--------------------------|----------------------------|
|--------------------------|----------------------------|
|--------------------------|----------------------------|
|------------5-5---5-------|-------------5--5-----5-5---|
|------5-7-------7-----7---|------x-7---------7-------7-|
|--------------------------|----------------------------|
|
| Gtr II
|-3-3------3---3-3-3-3-3-3-|-5-5------5-(5)-5---5-5-5---|
|-3-3------3---3-3-3-3-3-3-|-5-5------5-(5)-5---5-5-5---|
|-4-4------4h5-4-4-4-4-4-4-|-5-5------5-(5)-5---5-5-5-0-|
|-5-5------------5-5-5-5-5-|-7--------7-(7)-7---7-7-7-0-|
|--------------------------|--------------------------0-|
|--------------------------|----------------------------|


  G        GsusG
 ------------------------|
|------------------------------|
|------------------------------|
|------------------------------|
|------------5-------5---------|
|------x-7-------7-------7-----|
|------------------------------|
|
|-3-3------3---3-3-3-3-3-3-5---|
|-3-3------3---3-3-3-3-3-3-5---|
|-4-4------4h5-4-4-4-4-4-4-5---|
|-5-5------------5-5-5-5-5-----|
|------------------------------|
|------------------------------|


  Am            N.C.
           PM-------------------------
|------------------------------------|
|------------------------------------|
|------------------------------------|
|-------------------/9---9---7-5-----|
|---------(0)---7-5--------------7-x-|
|------------------------------------|
|
|-5-5-5-5----------------------------|
|-5-5-5-5----------------------------|
|-5-5-5-5-----x------5-5---5-7-5---5-|
|-7-7-7-7-------7--------7-------7---|
|------------------------------------|
|------------------------------------|


  G        GsusG               Am           AsusAm    AsusAm
 -----------------------------------------------------------|
|----------------------------|-----------------------------------|
|----------------------------|-----------------------------------|
|----------------------------|-----------------------------------|
|------------5-------5-------|----------------5-------5----------|
|------5-7-------7-------7---|----------5-7-------7---------7----|
|----------------------------|-----------------------------------|
|
|-3-3------3---3-3-3-3-3-3-3-|-5-5-5-5--5-5-5---5-5-5-5---5-5----|
|-3-3------3---3-3-3-3-3-3-3-|-5-5-5-5--5-5-5---5-5-5-5---5-5-x--|
|-4-4------4h5-4-4-4-4-4-4-4-|-5-5-5-5--5-5-5h7-5-5-5-5h7-5-5-x--|
|-5-5------------5-5-5-5-5-5-|-7-7-7-7--7-7----------------------|
|----------------------------|-----------------------------------|
|----------------------------|-----------------------------------|


  G        GsusG
       PM---------------------
|----------------------------|
|----------------------------|
|----------------------------|
|------------5-5-----5-5-----|
|------5-7-------7-------7---|
|----------------------------|
|
|-3-3------3---3-3-3-3-3-3-3-|
|-3-3------3---3-3-3-3-3-3-3-|
|-4-4------4h5-4-4-4-4-4-4-4-|
|-5-5------------5-5-5-5-5-5-|
|----------------------------|
|----------------------------|


                                   3rd Chorus
  Am          Asus4      Am         G        GsusG
 ------------------------------|         PM----------------|
|--------------------------------||----------------------------|
|--------------------------------||----------------------------|
|--------------------------------||----------------------------|
|---------------/9---9---7-5-----||------------5-5-----5-------|
|-----(0)---7-5--------------7-x-||------5-7-------7-------7---|
|--------------------------------||----------------------------|
|
|-5-5--5--5-5-5----5-5-5-5-------||-3-3------3---3-3-3-3-3-3-3-|
|-5-5--5--5-5-5----5-5-5-5-x-0---||-3-3------3---3-3-3-3-3-3-3-|
|-5-5--5--5-5-5h=7-7-7-7-5-x-0---||-4-4------4h5-4-4-4-4-4-4-4-|
|-7-7--7--7-7--------------------||-5-5------------5-5-5-5-5-5-|
|--------------------------------||----------------------------|
|--------------------------------||----------------------------|


  Am       Asus4       Am      G        GsusG
       PM------------------------------------------------
|----------------------------|--------------------------|
|----------------------------|--------------------------|
|----------------------------|--------------------------|
|------------5-5-----5-5-----|------------5-----5-------|
|------x-7-------7-------7---|------x-7-------7-----7---|
|----------------------------|--------------------------|
|
|-5-5------5---5-5-5-5-5-5-5-|-3-3------3---3-3-3-3-3-3-|
|-5-5------5---5-5-5-5-5-5-5-|-3-3------3---3-3-3-3-3-3-|
|-5-5----x-6h7-7-7-7-7-5-5-5-|-4-4------4h5-4-4-4-4-4-4-|
|-7-7----x-------------------|-5-5------------5-5-5-5-5-|
|----------------------------|--------------------------|
|----------------------------|--------------------------|


  Am          N.C.
 --------------------------------|
|----------------------------------|
|----------------------------------|
|----------------------------------|
|-----------------/9---9---7-5-----|
|-------(0)---7-5--------------7-x-|
|----------------------------------|
|
|           PM-------------------|
|-5-5-5----------------------------|
|-5-5-5----------------------------|
|-5-5-5----------------------------|
|-7-7-7-----x---x--5-5---5-5-5---x-|
|-------------7--------7-------7---|
|----------------------------------|


  G        GsusG             Am              Amadd9    Am  G
  PM-----------------------------------------------------|
|--------------------------|---------------------------------||
|--------------------------|---------------------------------||
|--------------------------|---------------------------------||
|------------5-----5-------|-------------------5-----5-------||
|------5-7-------7-----7---|-------------5-7-----7-------7---||
|--------------------------|---------------------------------||
|
|-3-3------3---3-3-3-3-3-3-|-5-5-5-5-(5)-5-5-5h7-7-7-7-3-----||
|-3-3------3---3-3-3-3-3-3-|-5-5-5-5-(5)-5-5-5---5-5-5-3-x-3-||
|-4-4------4h5-4-4-4-4-4-4-|-5-5-5-5-(5)-5-5-5---5-5-5-5-x-4-||
|-5-5------------5-5-5-5-5-|-7-7-7-7-(7)-7-7---------------5-||
|--------------------------|---------------------------------||
|--------------------------|---------------------------------||


 Outro
  G                                Am
  Gtr I
|--------------------------------|-------------------------------|
|--------------------------------|-------------------------------|
|-7-7---7--7--7-(7)-------7---7-|-5-5-5-5--7---8-----7--5s4---5-|
|-7-7-9-7-----9-(9)-------9-9---|-7-7-7-7-----10------------x-7-|
|--------------------------------|-------------------------------|
|--------------------------------|-------------------------------|
|
| Gtr II
|-3-----3-----3------3-3-3-3-3-3-|-5-----5------5-(5)-5--5-5-5---|
|-3-----3-----3------3-3-3-3-3-3-|-5-----5------5-(5)-5--5-5-5---|
|-4-----4-----4h=5---4-4-4-4-4-4-|-5-----5------5-(5)-5--5-5-5-0-|
|-5-----5--------------5-5-5-5-5-|-7------------7-(7)-7--7-7-7-0-|
|--------------------------------|-----------------------------0-|
|--------------------------------|-------------------------------|


  G
            ~~~~~~              ~
|----------------------------------|
|-----------8-(8)---------------8--|
|-4-4---7-9---------9S(2)-0-4s9----|
|-5-5S9-------------------0--------|
|-------------------------0--------|
|----------------------------------|
|
|-3-3-------3-----3-3--3--3-3-3-5--|
|-3-3-------3-----3-3--3--3-3-3-5--|
|-4-4-------4h=5--4-4--4--4-4-4-5--|
|-5-5---------------5--5--5-5-5----|
|----------------------------------|
|----------------------------------|


  Am
   ~~~
|---------------------------7-8p7--------|
|-(8)--------------8-(8)-10---------10---|
|-------9---0-7s9-----------------------|
|----------0-0---------------------------|
|----------0-0---------------------------|
|----------------------------------------|
|
|--5--5-5--5-----------------------------|
|--5--5-5--5-----------------------------|
|--5--5-5--5---x------5---5---5-7-5----5-|
|--7--7-7--7-----7----------7--------7---|
|----------------------------------------|
|----------------------------------------|


  G                                Am
|--------------------------------|----------------------------------|
|--------------------------------|----------------------------------|
|-7-7-7-7--9--7-(7)-----x-7-7-7-|-5-5-5-5--7---9-----7--5-4-x-5----|
|-9-9-9-9-----9-(9)-----x-7-7-7-|-7-7-7-7-----10-----9--7-5---7-x--|
|--------------------------------|----------------------------------|
|--------------------------------|----------------------------------|
|
|-3-----3-----3------3-3-3-3-3-3-|-5-----5------5-(5)-5--5-5-5------|
|-3-----3-----3------3-3-3-3-3-3-|-5-----5------5-(5)-5--5-5-5------|
|-4-----4-----4h=5---4-4-4-4-4-4-|-5-----5------5-(5)-5--5-5-5-0----|
|-5-----5--------------5-5-5-5-5-|-7------------7-(7)-7--7-7-7-0----|
|--------------------------------|-----------------------------0----|
|--------------------------------|----------------------------------|


  G                                   Am
            ~~~~~~     ~~~~~~                                               ~~~
|-------------------------------9-|-8-7----7--8--10s12-12-12s10-10-8S7-7---|
|-----------8-(8)--10-8-(8)--10---|-----10-------------------------------8-|
|-4-4---7-9-----------------------|----------------------------------------|
|-5-5-7---------------------------|----------------------------------------|
|---------------------------------|----------------------------------------|
|---------------------------------|----------------------------------------|
|
|-3-3-------3-----3--3-3--3--3--3-5-|-5-5--5-5-----------------------------|
|-3-3-------3-----3--3-3--3--3--3-5-|-5-5--5-5-----------------------------|
|-4-4-------4h=5--4--4-4--4--4--4-5-|-5-5--5-5--x-------5--5------5-7-5---5|
|-5-5----------------5-5--5--5--5---|-7-7--7-7----7--------------7-------7-|
|-----------------------------------|--------------------------------------|
|-----------------------------------|--------------------------------------|


  G
 ~~~~~
|--------10b12-(10)---10--------------|
|-(8)--------------------10b12-10p8---|
|-----------------------------------9-|
|-------------------------------------|
|-------------------------------------|
|-------------------------------------|
|
|--3--3---3---------3--3--3-----3-3-3-|
|--3--3---3---------3--3--3-----3-3-3-|
|--4--4---4h=====5--4--4--4-----4-4-4-|
|--5--5----------------5--5-----5-5-5-|
|-------------------------------------|
|-------------------------------------|


  Am                                      G
|------7-7-8--------------------|------7-8p7h8p7----7-8-10-8-7-8-10-8-7----|
|-8-10-------8---8-10b12-10p8---|-8-10-----------10---------------------15s|
|--------------9--------------9-|------------------------------------------|
|-------------------------------|------------------------------------------|
|-------------------------------|------------------------------------------|
|-------------------------------|------------------------------------------|
|
|-5------5---5-(5)-5---5--5---5----|-3-----3----------3----3-3-3--3-3-3--5-|
|-5------5---5-(5)-5---5--5---5----|-3-----3----------3----3-3-3--3-3-3--5-|
|-5------5---5-(5)-5---5--5---5-0--|-4-----4----------4h=5-4-4-4--4-4-4--5-|
|-7----------7-(7)-7---7--7---7-0--|-5-----5-----------------5-5--5-5-5----|
|-------------------------------0--|---------------------------------------|
|----------------------------------|---------------------------------------|


  Am
            ~~~~~~~                                    ~~
|----15----15-(15)-15----15---17b19---17b19---17b19---15---|
|-17----17------------19-----------------------------------|
|----------------------------------------------------------|
|----------------------------------------------------------|
|----------------------------------------------------------|
|----------------------------------------------------------|
|
|--5--5--5--5----------------------------------------------|
|--5--5--5--5----------------------------------------------|
|--5--5--5--5-------x-------5--5-------5----7--5-------5---|
|--7--7--7--7----------7------------7---------------7------|
|----------------------------------------------------------|
|----------------------------------------------------------|


  G
    ~~~~               ~~~~~~~
|-(15)----------17b19-15-(15)--------0-17b19---17b19-|
|------17-0-0-x-----------------17-0-0---------------|
|---------0-0----------------------------------------|
|----------------------------------------------------|
|----------------------------------------------------|
|----------------------------------------------------|
|
|---3-----3------------3------3--3---3--3----3--3----|
|---3-----3------------3------3--3---3--3----3--3----|
|---4-----4------------4h==5--4--4---4--4----4--4----|
|---5-----5----------------------5---5--5----5--5----|
|----------------------------------------------------|
|----------------------------------------------------|


  Am
                 ~~                              ~~
|-(17)-17p15----15-----------15------15-17b19---15--|
|------------17----17-15h17-----17------------------|
|---------------------------------------------------|
|---------------------------------------------------|
|---------------------------------------------------|
|---------------------------------------------------|
|
|---5---------5--------5-(5)--5----5--5--5----------|
|---5---------5--------5-(5)--5----5--5--5----------|
|---5---------5--------5-(5)--5----5--5--5----0-----|
|---7------------------7-(7)--7----7--7--7----0-----|
|---------------------------------------------0-----|
|---------------------------------------------------|


  G
    ~~~~
|-(15)----------------------15-17p15----15------|
|------17-15h17-15----15h17----------17------17p|
|------------------16---------------------------|
|-----------------------------------------------|
|-----------------------------------------------|
|-----------------------------------------------|
|
|---3------3-----------3-----3--3--3--3--3-3--5-|
|---3------3-----------3-----3--3--3--3--3-3--5-|
|---4------4-----------4h=5--4--4--4--4--4-4--5-|
|---5------5--------------------5--5--5--5-5----|
|-----------------------------------------------|
|-----------------------------------------------|


  Am
|-----------------------------------------------*|
|-15----15-17p15----15-17p15--------------------*|
|----16----------16----------16-14-16p14-14-----*|
|-----------------------------------------------*|
|-----------------------------------------------*|
|-----------------------------------------------*|
|
|--5--5--5--5-----------------------------------*|
|--5--5--5--5-----------------------------------*|
|--5--5--5--5-----x--------5--5-----5--7--5---5-*|
|--7--7--7--7--------7-----------7----------7---*|
|-----------------------------------------------*|
|-----------------------------------------------*|
Comments