Los Lobos - La Bamba Chords & Tabs

 

La Bamba Chords & Tabs

Los Lobos Chords & Tabs

Version: 8 Type: Tab 0 ratings
1 star 2 stars 3 stars 4 stars 5 stars
comments

La Bamba Tab

---------------------------------------------|
---------------------------------------------|
-------------0---2-0--------------------2-0--|
-----------2---3-----------03320---2033------|
----0-2-3---------------2--------3-----------|
-3--------------------3----------------------|

-11111-0---11111-0------------1-0---0--------|
---------1---------1-1111-303-----3---1------|
---------------------------------------------|
---------------------------------------------|
---------------------------------------------|
---------------------------------------------|
[ Tab from: http://www.guitartabs.cc/tabs/l/los_lobos/la_bamba_tab_ver_8.html ]
Comments