Los Lobos - La Bamba Chords & Tabs

 

La Bamba Chords & Tabs

Los Lobos Chords & Tabs

Version: 6 Type: Tab 0 ratings
1 star 2 stars 3 stars 4 stars 5 stars
comments

La Bamba Tab

This is the real la bamba intro:
[ Tab from: http://www.guitartabs.cc/tabs/l/los_lobos/la_bamba_tab_ver_6.html ]
    E-------------------------------------------------------------
    B-------------------------------------------------------------
    G-------------------------------------------------------------
    D---------2-0-4-2-----0-0-------2-0-4-2-----------------------
    A------0-4----------2----4-2-0-4------------------------------
    E-0-2-4----------0-4-------------------0----------------------



    E-------------------------------------------------------------
    B-------------------------------------------------------------
    G-------------------------------------------------------------
    D---------2-0-4-2-----0-0-------2-0-4-2-----------------------
    A------0-4----------2----4-2-0-4------------------------------
    E-0-2-4----------0-4-------------------0----------------------
Comments