Los Gringos - Spit On Chu Chords & Tabs

 

Spit On Chu Chords & Tabs

Los Gringos Chords & Tabs

Version: 1 Type: Bass Tab 0 ratings
1 star 2 stars 3 stars 4 stars 5 stars
comments

Spit On Chu Bass Tab

14=14 not 1, 4

Main riff
G-----16-------14--------
D---15------13----13-12--
A-14-----12--------------
E------------------------
[ Tab from: http://www.guitartabs.cc/tabs/l/los_gringos/spit_on_chu_btab.html ]
Heavy Part
G------------------------
D------------------------
A---------------3--------
E-20002000200200---------

song order:
Main riff  x8
heavy part x4
Main riff  x8
heavy part x4
Comments