Los Daniels - Quisiera Saber Chords & Tabs

 

Quisiera Saber Chords & Tabs

Los Daniels Chords & Tabs

Version: 1 Type: Bass Tab 0 ratings
1 star 2 stars 3 stars 4 stars 5 stars
comments

Quisiera Saber Bass Tab

Rola: Quisiera Saber
Banda: Los Daniels
Álbum: A Casa
Afinación: Estándar (EADG)

Por dersinner 

Ramón Hernández  r_herzbart@hotmail.com 



G|-----------------------------------------------------------------|
D|-----------------------------------------------------------------|
A|-9-------9-------5-------5-------4-------4-----------4-----0-4-8-|
E|-----9-------9-------5-------5-------4-------4---2-------2-------| 

G|------------------------------------------------------------------|
D|------------------------------------------------------------------|
A|-9-------9-------5-------5-------4-------4-------2------2-4-4---4-|
E|-----9-------9-------5-------5-------4-------4-------2--------4---| 

G|------------------------------------------------------------------|
D|------------------------------------------------------------------|
A|-9-------9-------5-------5-------4-------4-------2------2-4-4---4-|
E|-----9-------9-------5-------5-------4-------4-------2--------4---| 
        
G|------------------------------------------------------------------------|
D|------------------------------------------------------------------------|
A|-------4--2--2----------2-4--4---------4--7--7----7---457----444444444--|
E|-2--2----------4--0-0-4--------4--2--2----------7---57-----5------------| 

G|-----------------------------------------------------------------|
D|-----------------------------------------------------------------|
A|-9-------9-------5-------5-------4-------4-----------4-----0-4-8-|
E|-----9-------9-------5-------5-------4-------4---2-------2-------| 


G|------------------------------------------------------------------|
D|-----------------------------4------------------------------------|
A|-------------------------5-7---5-4-------4-------2--------4-4---4-|
E|-------------------------------------4-------4----------------4---| 
[ Tab from: http://www.guitartabs.cc/tabs/l/los_daniels/quisiera_saber_btab.html ]
G|------------------------------------------------------------------|
D|---------------------------7-4------------------------------------|
A|-9-x-----9-x-----5-x-----5-----5-4-x-----4-x-----2-x----2-4-4---4-|
E|-----9-------9-------5---------------4-------4-------2--------4---| 

G|-----------------------------------------------------------------------|
D|-----------------------------------------------------------------------|
A|-------4--2--2----------2-4--4---------4--7--7----7--457----444444444--|
E|-2--2----------4--0-0-4--------4--2--2----------7---57-----5-----------| 

G|------------------------------------------------------------------------|
D|------------------------------------------------------------------------|
A|-------4--2--2----------2-4--4---------4--7--7----7--457----44444444/9--|
E|-2--2----------4--0-0-4--------4--2--2----------7---57-----5------------| 



G|-----------------------------------------------------------------------|
D|-----------------------------------------------------------------------|
A|-------4--2--2----------2-4--4---------4--7--7----7--457----4-----4----|
E|-2--2----------4--0-0-4--------4--2--2----------7---57-----5---4-------| 

G|------------------------------------------------------------------------|
D|------------------------------------------------------------------------|
A|-------4--2--2----------2-4--4---------4--7--7----7--457----44444444/---|
E|-2--2----------4--0-0-4--------4--2--2----------7---57-----5------------| 

G|-----------------------------------------------------------------|
D|-----------------------------------------------------------------|
A|-9-------9-9-9---5-5-----5-5-5---4-4-----4-4-4-------4-----0-4-8-|
E|-----9------9--------5-5----5--------4-4----4----2-2----02-------| 

G|------------------------------------------------------------------------|
D|------------------------------------------------------------------------|
A|-9-9----7---9-9---7---5-5----5---5-5----5---4-4----2---4--4-----2--0----|
E|------99-9------99-9-------55-5-------55-5-------44-4--------4--------2-| 


---------------------------------------------------------------------------
http://www.losdaniels.com.mx
Comments