Los Crudos - Los Que Geremos Chords & Tabs

 

Los Que Geremos Chords & Tabs

Los Crudos Chords & Tabs

Version: 1 Type: Tab 0 ratings
1 star 2 stars 3 stars 4 stars 5 stars
comments

Los Que Geremos Tab

Band: Los Crudos
Song: Los Que Geremos?
You can find this song only from split 7" EP with MK-ULTRA
This tab by: Ratos Ma Gatos

Intro/Chorus:
e|-----------------------------------|
B|-----------------------------------|
G|-----------------------------------|
D|----5-8-7---5-8-7---5-8-7---5-8-7--|
A|--7-3-6-5-7-3-6-5-7-3-6-5-7-3-6-5--|
E|--5-------5-------5-------5--------|
[ Tab from: http://www.guitartabs.cc/tabs/l/los_crudos/los_que_geremos_tab.html ]
Verse:
e|------------------------------------------|
B|------------------------------------------|
G|------------------------------------------|
D|--7-7-7-7-7-----------7-7-7-7-7-----------|
A|--5-5-5-5-5-5-5-5-5-5-5-5-5-5-5-5-5-5-5-5-|
E|------------3-3-3-3-3-----------3-3-3-3-3-|

Outro of song:
e|-----------------------------------|
B|-----------------------------------|
G|-----------------------------------|
D|--7-7-7-7-8-8-8-8-5-5-5-5----------|
A|--5-5-5-5-6-6-6-6-3-3-3-3-7-7-7-7--|
E|--------------------------5-5-5-5--|

Song order:

Intro/Chorus   x1
Verse          x1
Intro/Chorus   x1
Verse          x1
Outro of song  x4
Intro/Chorus   x1
Comments