Los Crudos - Achicados Chords & Tabs

 

Achicados Chords & Tabs

Los Crudos Chords & Tabs

Version: 1 Type: Bass Tab 0 ratings
1 star 2 stars 3 stars 4 stars 5 stars
comments

Achicados Bass Tab

BAND:LOS CRUDOS 
SONG: Achicados (from "spitboy") 
TABBED BY: Tal .H.- hitnaarut@hotmail.com

VERSE:
[ Tab from: http://www.guitartabs.cc/tabs/l/los_crudos/achicados_btab.html ]
G:-------------------------------------------------
D:-------------------------------------------------
A:-3-3--3-3-3-5-5----------------------------------
E:----------------2-3-3-----------------------------

CHORUS:

G:---------------------------------------
D:---------------------------------------  
A:-3-3--5-5--3-3--5-5--3--5--------------   
E:--------------------------3------------   
 

Comments