Los Bunkers - Mino Chords & Tabs

 

Mino Chords & Tabs

Los Bunkers Chords & Tabs

Version: 1 Type: Bass Tab 0 ratings
1 star 2 stars 3 stars 4 stars 5 stars
comments

Mino Bass Tab

Intro:
------------------------------------------------- X2
-------------------------------------------------
-3-3-3-0-3-3-3-3-3-------------------------------
-------------------5-5-5-0-5-5-5-5-50------------

Verso:
Fueron Las Canchas Donde Corrí...
------------------------------------------------- X2
-------------------------------------------------
-3-3-3-0-3-3-3-3-3-------------------------------
-------------------5-5-5-0-5-5-5-5-50------------

El Miedo A La Oscuridád...
------------------------------------------------- X2
-------------------------------------------------
-5-5-5-5-3-3-3-3-3-------------------------------
-------------------3-3-3-0-3-3-3-3-30------------

Sentada Sola Y Triste Con La Cruel Verdád...
------------------------------------------------- X2
-------------------------------------------------
-3-3-3-0-3-3-3-3-3-------------------------------
-------------------5-5-5-0-5-5-5-5-50------------

Es Evidente Que El Perdón...
------------------------------------------------- X2
-------------------------------------------------
-5-5-5-5-3-3-3-3-3-------------------------------
-------------------3-3-3-0-3-3-3-3-30------------

Pre-coro:
Nadie Me Esperará...
---5---5----5555555------------------------------
-3---4-------------------------------------------
---------3---------5\----------------------------
-------------------------------------------------
[ Tab from: http://www.guitartabs.cc/tabs/l/los_bunkers/mino_btab.html ]
En Las Veredas Como Imaginé
-------------------------------------------------
-------------------------------------------------
---------------------------------5---------------
-1-1-1-1-1-1-1-1-5-5-5-0-5-5-5-5---5--------------

Si Fuese Así La Eternidád
-------------------------------------------------
-------------------------------------------------
-5-5-5-5-3-3-3-3-3-------------------------------
-------------------3-3-3-0-3-3-3-3-30------------

Yo No Quisiera...
-------------------------------------------------
-------------------------------1-1-2-5-----------
-5-5-5-5-3-3-3-3-3-2-2-2-2-2-2-------------------
-------------------------------------------------
Coro:
Tantas Caras Que Tengo Que Olvidar
--------------------------------5---------------- X4
--------------2------2--5-5-5-5---5--------------
-----2--2-2-2---2-3-3-3--------------------------
-0-0--0------------------------------------------

-------------------------------------------------
----------------------------1-1-2-5--------------
-----2---3-3-3-3-5-2-----------------------------
-3-3---3-------------2-2-5-----------------------

Se Incendió.
-------------------------------------------------
-------------------------------------------------
-1-----------------------------------------------
---3-0-------------------------------------------


Luego se repite completa y en el final se repite el coro hasta que termine la cancion.

fcu_ollie@hotmail.com
Comments