Los Bunkers - Entre Mis Brazos Chords & Tabs

 

Entre Mis Brazos Chords & Tabs

Los Bunkers Chords & Tabs

Version: 1 Type: Bass Tab 0 ratings
1 star 2 stars 3 stars 4 stars 5 stars
comments

Entre Mis Brazos Bass Tab

song title :Entre mis brazos
artist     :Los Bunkers
tabber     :juann_chilean_rocker

this is a cool song from a cool chilean rockband...

intro (no bass)
G--------------|--------------|--------------|--------------|
D--------------|--------------|--------------|--------------| 
A--------------|--------------|--------------|--------------|
E--------------|--------------|--------------|--------------|

                                 verse
G---------------|---------------||--------------|-----------------|
D---------------|---------------||--------------|-----------------| 
A-1-1-0---------|--------------7||--------------|-----------------|
E-------5-3-3-1-|1/4-4-5-5-7-7--||-5-5-5-/5-5-5-|-6-6-5-3-1/4-4-0-|


G--------------|-----------------|-------------------------------|---------|
D--------------|-----------------|---2-2/3-----2-2/3-----2-2/3---|---3-2---| 
A--------------|-----------------|-5-------5-4-------4-3-------3-|-2-----3-|
E-5-5-5-/5-5-5-|-6-6-5-3-1/4-4-0-|-------------------------------|---------|


G--------------------|-------------------------------|---------|
D--------------------|---2-2/3-----2-2/3-----2-2/3---|---3-2---|  
A------------------7-|-5-------5-4-------4-3-------3-|-2-----3-|
E-5-5-/5-5-0-5-7-8---|-------------------------------|---------|

                                                x2
G---------------|---------------|-----------------||
D---------------|---------------|-----------------|| 
A-------5-7-7-7-|---------------|---------------7-||
E-5-7-8---------|-6-6-5-5-3-3-1-|-1-4-4-5-5-7-7---||


 chorus 1
G--------------|--------------|---------------------|
D--------------|--------------|---------------------|
A--------------|-7--7---------|-----4---0-2-4-4---4-|
E-5--5---------|--------------|-2-2---2---------4---|

G-----------------|------------------|--------------|--------------|
D-----------------|-------2-3-5-7-10-|--------------|--------------| 
A-------2-----1-4-|-2-4-5------------|--------------|-7--7---------|
E-0-2-3---2-4-----|------------------|-5--5---------|--------------|


G---------------------|-----------------|-------------2-5-|---------------|
D---------------------|-----------------|-------2-3-5-----|---------------| 
A-----4---0-2-4-4---4-|-------2-----1-4-|-2-4-5-----------|---------------|
E-2-2---2---------4---|-0-2-3---2-4-----|-----------------|-6-6-5-3-3-1-1-|
[ Tab from: http://www.guitartabs.cc/tabs/l/los_bunkers/entre_mis_brazos_btab.html ]
               verse 2  (subtle changes)
G-------------||---------------|---------------------|-------------------|
D-------------||---------------|---------------------|-------------------| 
A-----------7-||---------------|---------5-8-7-5-----|-------------------|
E-0-4-4-7-7---||-5-5-7-7-8-8-5-|-0-5-6-8---------8-7-|-5-5-7-7-8-8-5-0-5-|


G-----------------|-------------------------------|---------|--------------|
D-----------------|---2-2/3-----2-2/3-----2-2/3---|---3-2---|--------------| 
A-----5-8-7-5-----|-5-------5-4-------4-3-------3-|-2-----3-|--------------|
E-6-8---------8-7-|-------------------------------|---------|-5-5-/5-5-5-0-|


G---------|-------------------------------|---------|---------------------|
D---------|---2-2/3-----2-2/3-----2-2/3---|---3-2---|---------------------| 
A-------7-|-5-------5-4-------4-3-------3-|-2-----3-|-------5-7-7-7-7---7-|
E-5-7-8---|-------------------------------|---------|-5-7-8-----------7---|

chorus 2 
G--------------|--------------|---------------------|
D--------------|--------------|---------------------|
A--------------|-7--7---------|-----4---0-2-4-4---4-|
E-5--5---------|--------------|-2-2---2---------4---|

G-----------------|------------------|--------------|--------------|
D-----------------|-------2-3-5-7-10-|--------------|--------------| 
A-------2-----1-4-|-2-4-5------------|--------------|-7--7---------|
E-0-2-3---2-4-----|------------------|-5--5---------|--------------|


G---------------------|-----------------|-------------2-5-|---------------|
D---------------------|-----------------|-------2-3-5-----|---------------| 
A-----4---0-2-4-4---4-|-------2-----1-4-|-2-4-5-----------|---------------|
E-2-2---2---------4---|-0-2-3---2-4-----|-----------------|-6-6-5-3-3-1-1-|

G-------------|
D-------------|
A-----------7-|
E-0-4-4-7-7---|

outro
G------------------|-------------------|------------------|-------------------|
D------------------|-------------------|------------------|-------------------| 
A------------------|-------------------|------------------|-------------------|
E-5--5-5--0-5--5-5-|-6-5-3-1-4-4-0-0-0-|-5--5-5--0-5--5-5-|-6-5-3-1-4-4-0-0-0-|

                                                                       x4
G||-----------------|-----------------|-----------------|-----------------||
D||-----------------|-----------------|-----------------|-----------------||
A||-----------------|-----5-8-7-5-----|-----------------|-----5-8-7-5-----||
E||-5-7-8-7-5-7-8-7-|-6-8---------8-7-|-5-7-8-7-5-7-8-7-|-6-8---------8-7-||

end
G-------------|
D-------------|
A-------------|
E-5-----------|

suggestions, comments at jjuann@rock.com  :-)
Comments