Los Bandoleros - Caldo De Gallina Negra Chords & Tabs

 

Caldo De Gallina Negra Chords & Tabs

Los Bandoleros Chords & Tabs

Version: 1 Type: Bass Tab 1 rating
1 star 2 stars 3 stars 4 stars 5 stars
comments

Caldo De Gallina Negra Bass Tab

"Caldo de gallina negra"
por:"Los bandoleros"
album:"Los bandoleros"

https://www.facebook.com/los.bandoleros.7
https://myspace.com/losbandolerosdeteno/music/songs
http://www.youtube.com/watch?v=A_4Ng34Ucw0

Tab por kilterry
marcelorocket@hotmail.com

Bajo EADG

Intro:


G-|-------------------------------------|--------------------------------------------|
D-|-------------------------------------|--------------------------------------------|
A-|-7---7-----6-7---7-----6-7---7-6-5-4-|--7---6-7-6-7---7---4-5-6-7---7-----6-7---7-|
E-|---7---7-9-----7---7-9-----7---------|5---5---------5---5---------7---7-9-----7---|

G-|---------------------------|-------------------------|
D-|---------------------------|-------------------------|
A-|---------9---8-9-8-9---7---|4-5-6-7---7-----6-7---7--|
E-|-4-5-6-7---7---------5---5-|--------7---7-9-----7----|

1er verso: 

G-|-------------------------------------------------------------------|
D-|-------------------------------------------------------------------|
A-|-7---7-----6-7---7-------7---6-7-6-7---7---4-5-6-7---7-----6-7---7-|
E-|---7---7-9-----7---7-6-5---5---------5---5---------7---7-9-----7---|

G-|---------------------------------------------------|
D-|---------------------------------------------------|
A-|---------9---8-9-8-9---9---9-9-8-7---7-----6-7---7-|
E-|-4-5-6-7---7---------7---7---------7---7-9-----7---|

G-|-------------------------------------------------------------------|
D-|-------------------------------------------------------------------|
A-|-7---7-----6-7---7-------7---6-7-6-7---7---4-5-6-7---7-----6-7---7-|
E-|---7---7-9-----7---7-6-5---5---------5---5---------7---7-9-----7---|

G-|---------------------------------------------------|
D-|---------------------------------------------------|
A-|---------9---8-9-8-9---9---9-9-8-7---7-----6-7---7-|
E-|-4-5-6-7---7---------7---7---------7---7-9-----7---|


coro: "dinero por nada la receta no ..."

G-|-------------------|-------------------|-------------------|-------------|
D-|---------------4---|---------------4---|---------------4---|-------------|
A-|---4-7-5-4---6---6-|---4-7-5-4---6---6-|---4-7-5-4---6---6-|---4-7-5-4---|
E-|-5---------7-------|-5---------7-------|-5---------7-------|-5---------7-|
[ Tab from: http://www.guitartabs.cc/tabs/l/los_bandoleros/caldo_de_gallina_negra_btab.html ]
G-|-----------------------------------------------|
D-|-----------------------------------------------|
A-|-7---7-----6-7---7-----6-7---7-----6-7---7-6-4-|
E-|---7---7-9-----7---7-9-----7---7-9-----7-------|


solo de guitarra:

G-|---------| |--------------------|---------| 
D-|---------| |--------------------|-----2---| 
A-|-7-5---5-| |-7-7--5-5--3-3--2-2-|-0-3---3-| 
E-|-----7---| |--------------------|---------| 
   (6 veces)                        (4 veces)   


G-|---------|-----------------------------------------------------------|
D-|---------|-------------------------7-7-5-5---------------------------|
A-|-7-5---5-|-7-5-------7/9-9---9-8-7---------9-9-5-6-7---7-----6-7---7-|
E-|-----7---|-----5-6-7-------7-------------------------7---7-9-----7---|
   (3 veces)                        


2do verso: 

G-|-------------------------------------------------------------------|
D-|-------------------------------------------------------------------|
A-|-7---7-----6-7---7-------7---6-7-6-7---7---4-5-6-7---7-----6-7---7-|
E-|---7---7-9-----7---7-6-5---5---------5---5---------7---7-9-----7---|

G-|---------------------------------|
D-|---------------------------------|
A-|---------9---8-9-8-9---9---9-9-8-|
E-|-4-5-6-7---7---------7---7-------|

G-|-------------------------------------------------------------------|
D-|-------------------------------------------------------------------|
A-|-7---7-----6-7---7-------7---6-7-6-7---7---4-5-6-7---7-----6-7---7-|
E-|---7---7-9-----7---7-6-5---5---------5---5---------7---7-9-----7---|

G-|----------------------------|
D-|----------------------------|
A-|---------99---9---9---99-8--|
E-|-4-5-6-7----7---7---7-------|

G-|-------------------|
D-|-------------------|
A-|-7---7-----6-7---7-|
E-|---7---7-9-----7---|


coro: "dinero por nada la receta no ..."

G-|-------------------|-------------------|-------------------|-------------|
D-|---------------4---|---------------4---|---------------4---|-------------|
A-|---4-7-5-4---6---6-|---4-7-5-4---6---6-|---4-7-5-4---6---6-|---4-7-5-4---|
E-|-5---------7-------|-5---------7-------|-5---------7-------|-5---------7-|

G-|-------------------|-------------| |-----------------------|
D-|-------------------|-------------| |-----------------------|
A-|-7---7-----6-7---7-|-----6-7---7-| |-----6-7---7p6-------7-|
E-|---7---7-9-----7---|-7-9-----7---| |-7-9-----7-----9-9-7---|

                          (5 veces)
Comments