Lori Fine - You Chords & Tabs

 

You Chords & Tabs

Lori Fine Chords & Tabs

Version: 1 Type: Tab 0 ratings
1 star 2 stars 3 stars 4 stars 5 stars
comments

You Tab

You by Lori Fine (COLDFEET)

Tabber- Jake Chen

From the Samurai Champloo OST. 

Drop D Tuning, Capo on 1st Fret or tune one step up. 

Questions & Comments to darc_blade@hotmail.com

[ Tab from: http://www.guitartabs.cc/tabs/l/lori_fine/you_tab.html ]
E|----0--------------------|----0----------------|
B|---3-----3----0h1------3-|---3-----8----3----0-|
G|--0-----2----0------2h4--|--0-----7----2-------|
D|-------4----2------4-----|-------9----4-----8--|
A|-3----2----0------2------|-3----7----2-----6---|
E|-------------------------|----------------6----|

E|----0--------------------|----0-------------------|
B|---3-----3----0h1------3-|---3-----8----3---------|
G|--0-----2----0------2h4--|--0-----7----2---10-----|
D|-------4----2------4-----|-------9----4------10-8-|
A|-3----2----0------2------|-3----7----2------------|
E|-------------------------|----------------8-------|
Comments