Lords Of The Stone - Visions Chords & Tabs

 

Visions Chords & Tabs

Lords Of The Stone Chords & Tabs

Version: 1 Type: Tab 0 ratings
1 star 2 stars 3 stars 4 stars 5 stars
comments

Visions Tab

   
Band : Lords of the Stone
Song: Visions
Album: Nightflowers
tabbed by : Martijn Wietsma


h = hammer
p = pick
/ = slide
~ = pull string up


                     -==== VISIONS ====-

Intro part (1)

|----------------------------|-----------------------------|
|----------------------------|-----------------------------|
|----------------------------|-----------------------------|
|----------------------------|-----------------------------|
|---------------------10-10--|-8-8-------------------------|
|--3~-----12-12-10-10--------|------3~-9-10-12---3~--------|
repeat this 4x


Part (2) you have to play this very slow so listen to the 
music and you will understand.

|----------------------------|
|----------------------------|
|----------------------------|
|----------------------------|
|--8-10-8-3------------------|
|------------9-10-12-3~------|
repeat this 2x


Part (3)

|----------------------------|
|----------------------------|
|----------------------------|
|----------------------------|
|--8-10-8-3---6-8-10~-(8)----|
|----------------------------|


repeat part 1 2x

repeat part 2 3x

Then you hear a piano or keyboard playing

Solo:

|----------------------------|-----------------------------|
|----------------------------|-----------------------------|
|-12-12~-10-8/7---7-8-10-12--|-15~-14-12-------------------|
|----------------------------|-----------------------------|
|----------------------------|-----------------------------|
|----------------------------|-----------------------------|

[ Tab from: http://www.guitartabs.cc/tabs/l/lords_of_the_stone/visions_tab.html ]
|----------------------------|-----------------------------|
|----------5-3---------------|--3~-1-0----2h3-2------------|
|--7h8-10--------5-7h8-7p5-3-|-----------------------------|
|----------------------------|-----------------------------|
|----------------------------|-----------------------------|
|----------------------------|-----------------------------|


|----------------------------|
|----------------------------|
|-3/5-3h5p3h5p3h5p3h5-3-2-3--|
|----------------------------|
|----------------------------|
|----------------------------|

|-12h13-15-17-15-13-15-12-13-|-10-12-8-10---7-8-7-10-8-7---|
|----------------------------|-----------------------------|
|----------------------------|-----------------------------|
|----------------------------|-----------------------------|
|----------------------------|-----------------------------|
|----------------------------|-----------------------------|


|--8-7-5---7-8-10---8p7-5----|--5h7h8p7--------------------|
|----------------------------|-----------------------------|
|----------------------------|-----------------------------|
|----------------------------|-----------------------------|
|----------------------------|-----------------------------|
|----------------------------|-----------------------------|


|--5h7h8p7---5h7-5h7-8-10-12-|-10h12-10-15-13-12h13-10-----|
|----------------------------|-----------------------------|
|----------------------------|-----------------------------|
|----------------------------|-----------------------------|
|----------------------------|-----------------------------|
|----------------------------|-----------------------------|


|--7-9h10-9-7----------------|
|----------------------------|
|----------------------------|
|----------------------------|
|----------------------------|
|----------------------------|


repeat part 1 2x

repeat part 2 4x

Questions, opinions -> Mail it to : razor@euronet.nl
Please visit our mud on telnet: imagica.net:4000
Join the Army of Darkness and Death and become a Vampire!!
Comments