Lordi - Would You Love A Monsterman Chords & Tabs

 

Would You Love A Monsterman Chords & Tabs

Lordi Chords & Tabs

Version: 2 Type: Tab

Would You Love A Monsterman Tab

INTRO
|-------------------|
|-------------------|
|-------------------|
|--7--9--7--9--7-9--|
|--7--9--7--9--7-9--|
|--5--7--5--7--5-7--|


VERSE
|---|
|---|
|-4-|
|-4-|
|-2-|
|-2-|


PRE-CHORUS
|------------------------------------|
|------------------------------------|
|-------------------2---4---------4--|
|--5----------------2---4---------4--|
|--5--------------------2---------2--|
|--3--------------------2---------2--|



|--------------------------------------|
|--------------------------------------|
|------------------------------2--2-2--|
|--5---------------4--4-4------2--2-2--|
|--5---------------4--4-4--------------|
|--3---------------2--2-2--------------|


CHORUS
|---------------------------------------------------|
|---------------------------------------------------|
|---------------------------------------------------|
|--9--9--7--9-9-5-5--7--9-9--7-7--4--7-7-9-9--4--7--|
|--9--9--7--9-9-5-5--7--9-9--7-7--4--7-7-9-9--4--7--|
|--7--7--5--7-7-3-3--5--7-7--5-5--2--5-5-7-7--2--5--|



|---------------------------------------------|
|---------------------------------------------|
|---------------------------------------------|
|--9--9--7--9-9-5-5--7--9-9--7-7--4--7-7-9-9--|
|--9--9--7--9-9-5-5--7--9-9--7-7--4--7-7-9-9--|
|--7--7--5--7-7-3-3--5--7-7--5-5--2--5-5-7-7--|



BRIDGE
|------------------------------------------------------------|
|------------------------------------------------------------|
|------------------------------------------------------------|
|--2------4------5-------------------------------------------|
|--2------4------5-------4-5-5-5-5-5-5-5-5-5b5b5b5b5b5b5b5b--|
|--0------2------5-------------------------------------------|



|-------------------------------|
|-------------------------------|
|-------------------------------|
|--2------4------5------7--7-7--|
|--2------4------5------7--7-7--|
|--0------2------3------7--7-7--|



|-----------------------------------------------------------------------|
|-----------------------------------------------------------------------|
|------------------------------7----------------------7-----------------|
|-7--9---7--9---7--9---7--9----7---7----4--5---4--5---7-7--4---4--------|
|-7--9---7--9---7--9---7--9----5---7----4--5---4--5---5-7--4---4--------|
|-5--7---5--7---5--7---5--7--------5----2--3---2--3-----5--2---2--5~-6~-|


[ Tab from: http://www.guitartabs.cc/tabs/l/lordi/would_you_love_a_monsterman_tab_ver_2.html ]
|-----------------------------------------------------------------------|
|--------------------------------------5----------5---------------------|
|------------------------------7-----------7--6-------7--6----4--6--7-6-|
|-7--9---7--9---7--9---7--9----7---7------------------------------------|
|-7--9---7--9---7--9---7--9----5---7------------------------------------|
|-5--7---5--7---5--7---5--7--------5------------------------------------|



|-----------------------------------------------------------------------|
|-----------------------------------------------------------------------|
|-----------------------------------------------------------------------|
|-7/--------------------------------------------------------------------|
|-7/----------------------------------------4--7--6---------------------|
|-------------------------------/--4--5--7------------------------------|
 Would you love a monsterman...



OUTRO
|----------------------------------------------------------|
|----------------------------------------------------------|
|-6---6---4--6-6---2-2---4--6-6---4-4------4-4--6-6------4-|
|-6---6---4--6-6---2-2---4--6-6---4-4---6--4-4--6-6---6--4-|
|-4---4---2--4-4---0-0---2--4-4---2-2---6--2-2--4-4---6--2-|
|---------------------------------------4-------------4----|

|----------------------------------------------------------|
|----------------------------------------------------------|
|-6---6---4--6-6---2-2---4--6-6---4-4------4-4--6-2------4-|
|-6---6---4--6-6---2-2---4--6-6---4-4---6--4-4--6-2---6--4-|
|-4---4---2--4-4---0-0---2--4-4---2-2---6--2-2--4-0---6--2-|
|---------------------------------------4-------------4----|

|----------------------------------------------------------|
|----------------------------------------------------------|
|-6---6---4--6-6---2-2---4--6-6---4-4------4-4--6-6------4-|
|-6---6---4--6-6---2-2---4--6-6---4-4---6--4-4--6-6---6--4-|
|-4---4---2--4-4---0-0---2--4-4---2-2---6--2-2--4-4---6--2-|
|---------------------------------------4-------------4----|

|------------------------------------------------------------------|
|------------------------------------------------------------------|
|-6---6---4--6-6---2-2---4--6-6---4-4------4-4--6-2--------------6-|
|-6---6---4--6-6---2-2---4--6-6---4-4---6--4-4--6-2--------------6-|
|-4---4---2--4-4---0-0---2--4-4---2-2---6--2-2--4-0--------4-7-6-4-|
|---------------------------------------4------------4-5-7-------4-|



SONG FLOW
INTRO X4
VERSE X8
PRE-CHORUS
CHORUS
VERSE X8
CHORUS
BRIDGE
OUTRO