Lordi - Would You Love A Monsterman Chords & Tabs

 

Would You Love A Monsterman Chords & Tabs

Lordi Chords & Tabs

Version: 1 Type: Tab 1 rating
1 star 2 stars 3 stars 4 stars 5 stars
comments

Would You Love A Monsterman Tab

                         Would You Love A Monsterman?                           


Guitar 1
                                                                              
E||------------------------|------------------------|------------------------|
B||------------------------|------------------------|------------------------|
G||------------------------|------------------------|------------------------|
D||------------------------|------------------------|------------------------|
A||--0h-2----0h-2----0h-2--|--0h-2----0h-2----0h-2--|--0h-2----0h-2----0h-2--|
E||------------------------|------------------------|------------------------|


                                                                     
------------------------|---------------------|---------------------|
------------------------|---------------------|---------------------|
------------------------|---------------------|---------------------|
------------------------|----4---4---4--------|----7---7---7--------|
--0h-2----0h-2----0h-2--|----4---4---4--------|----7---7---7--------|
------------------------|----2---2---2--------|----5---5---5--------|


                                                              
|--------------------|-------------------|-------------------|
|--------------------|-------------------|-------------------|
|*--4----------------|--4----------------|--4----------------|
|*--4----------------|--4----------------|--4----------------|
|---2----------------|--2----------------|--2----------------|
|--------------------|-------------------|-------------------|


                                                              
--------------------||-------------------|-------------------|
--------------------||-------------------|-------------------|
--4----------------*||-------------------|-------------------|
--4----------------*||--5----------------|--------------7----|
--2-----------------||--5----------------|--------------7----|
--------------------||--3----------------|--------------5----|


                                                                               
-------------------|-------------------|-------------------|------------------|
-------------------|-------------------|-------------------|------------------|
--4----------------|--4----------------|-------------------|------------------|
--4----------------|--4----------------|--5----------------|------------------|
--2----------------|--2----------------|--5----------------|------------------|
-------------------|-------------------|--3----------------|------------------|


                                                                    
---------------------|---------------------|-----------------------|
---------------------|---------------------|-----------------------|
---------------------|---------------------|-----------------------|
----4---4---4--------|----7---7---7--------|--9----9----7----9--7--|
----4---4---4--------|----7---7---7--------|--9----9----7----9--7--|
----2---2---2--------|----5---5---5--------|--7----7----5----7--5--|


                                                                       
-----------------------|-----------------------|----------------------|
-----------------------|-----------------------|----------------------|
-----------------------|-----------------------|----------------------|
----5--5----7----9--9--|----7--7----4----7--7--|----9--9----4----7----|
----5--5----7----9--9--|----7--7----4----7--7--|----9--9----4----7----|
----3--3----5----7--7--|----5--5----2----5--5--|----7--7----2----5----|


                                                                        
-----------------------|-----------------------|-----------------------|
-----------------------|-----------------------|-----------------------|
-----------------------|-----------------------|-----------------------|
--9----9----7----9--7--|----5--5----7----9--9--|----7--7----4----7--7--|
--9----9----7----9--7--|----5--5----7----9--9--|----7--7----4----7--7--|
--7----7----5----7--5--|----3--3----5----7--7--|----5--5----2----5--5--|


                                                              
--------------------|--------------------|-------------------|
--------------------|--------------------|-------------------|
--------------------|--------------------|--4----------------|
----5--5------------|----------4--4------|--4----------------|
----5--5------------|----------4--4------|--2----------------|
----3--3------------|----------2--2------|-------------------|


                                                                                
-------------------|-------------------|-------------------|-------------------|
-------------------|-------------------|-------------------|-------------------|
--4----------------|--4----------------|--4----------------|--4----------------|
--4----------------|--4----------------|--4----------------|--4----------------|
--2----------------|--2----------------|--2----------------|--2----------------|
-------------------|-------------------|-------------------|-------------------|


                                                                                
-------------------|-------------------|-------------------|-------------------|
-------------------|-------------------|-------------------|-------------------|
--4----------------|--4----------------|--4----------------|-------------------|
--4----------------|--4----------------|--4----------------|--5----------------|
--2----------------|--2----------------|--2----------------|--5----------------|
-------------------|-------------------|-------------------|--3----------------|


                                                                                
-------------------|-------------------|-------------------|-------------------|
-------------------|-------------------|-------------------|-------------------|
-------------------|--4----------------|--4----------------|-------------------|
--------------7----|--4----------------|--4----------------|--5----------------|
--------------7----|--2----------------|--2----------------|--5----------------|
--------------5----|-------------------|-------------------|--3----------------|


                                                               
------------------|---------------------|---------------------|
------------------|---------------------|---------------------|
------------------|---------------------|---------------------|
------------------|----4---4---4--------|----7---7---7--------|
------------------|----4---4---4--------|----7---7---7--------|
------------------|----2---2---2--------|----5---5---5--------|


                                                                        
-----------------------|-----------------------|-----------------------|
-----------------------|-----------------------|-----------------------|
-----------------------|-----------------------|-----------------------|
--9----9----7----9--7--|----5--5----7----9--9--|----7--7----4----7--7--|
--9----9----7----9--7--|----5--5----7----9--9--|----7--7----4----7--7--|
--7----7----5----7--5--|----3--3----5----7--7--|----5--5----2----5--5--|

[ Tab from: http://www.guitartabs.cc/tabs/l/lordi/would_you_love_a_monsterman_tab.html ]
                                                                       
----------------------|-----------------------|-----------------------|
----------------------|-----------------------|-----------------------|
----------------------|-----------------------|-----------------------|
----9--9----4----7----|--9----9----7----9--7--|----5--5----7----9--9--|
----9--9----4----7----|--9----9----7----9--7--|----5--5----7----9--9--|
----7--7----2----5----|--7----7----5----7--5--|----3--3----5----7--7--|


                                                                
-----------------------|--------------------|------------------|
-----------------------|--------------------|------------------|
-----------------------|--------------------|------------------|
----7--7----4----7--7--|----5--5------------|------------------|
----7--7----4----7--7--|----5--5------------|------------------|
----5--5----2----5--5--|----3--3------------|------------------|


                                                            
-------------------|-------------------|-------------------|
-------------------|-------------------|-------------------|
-------------------|-------------------|-------------------|
--2----------------|--4----------------|--5----------------|
--2----------------|--4----------------|--5----------------|
--0----------------|--2----------------|--3----------------|


                                                                           
----------------------------------|-------------------|-------------------|
----------------------------------|-------------------|-------------------|
----------------------------------|-------------------|-------------------|
----------------------------------|--2----------------|--4----------------|
--2t2t2t2t4t4t4t4t5t5t5t5t--------|--2----------------|--4----------------|
--------------------------5t5t5t5t|--0----------------|--2----------------|


                                                                   
-------------------|---------------------|------------------------|
-------------------|---------------------|------------------------|
-------------------|---------------------|------------------------|
--5----------------|----7---7---7--------|------------------------|
--5----------------|----7---7---7--------|--0h-2----0h-2----0h-2--|
--3----------------|----5---5---5--------|------------------------|


                                                                      
----------------------|------------------------|---------------------|
----------------------|------------------------|---------------------|
----------------------|------------------------|---------------------|
----------------------|------------------------|---------------------|
----0h-2----5---------|------------------5--0--|---------------------|
-----------------5----|--2h-3----2h-3----------|----2------5----6----|


                                                                        
------------------------|----------------------|--12------10------9----|
------------------------|----------------------|-----------------------|
------------------------|----------------------|-----------------------|
------------------------|----------------------|-----------------------|
--0h-2----0h-2----0h-2--|----0h-2----5---------|-----------------------|
------------------------|-----------------5----|-----------------------|


                                                                   
--12------10------9----|--7------9------10----|--9----------------|
-----------------------|----------------------|-------------------|
-----------------------|----------------------|-------------------|
-----------------------|----------------------|-------------------|
-----------------------|----------------------|-------------------|
-----------------------|----------------------|-------------------|


                                                            
---------------------|------------------|------------------|
---------------------|------------------|------------------|
---------------------|------------------|------------------|
----7---7---7--------|------------------|------------------|
----7---7---7--------|------------------|------------------|
----5---5---5--------|------------------|------------------|


                                                                              
------------------------|--------------------------|-------------------------|
------------------------|--------------------------|-------------------------|
------------------------|--------------------------|-------------------------|
------------------------|--11----11----9----11--9--|----7--7----9----11--11--|
-------------2---7---6--|--11----11----9----11--9--|----7--7----9----11--11--|
--3---4---5-------------|--9-----9-----7----9---7--|----5--5----7----9---9---|


                                                                            
-----------------------|------------------------|--------------------------|
-----------------------|------------------------|--------------------------|
-----------------------|------------------------|--------------------------|
----9--9----6----9--9--|----11--11----6----9----|--11----11----9----11--9--|
----9--9----6----9--9--|----11--11----6----9----|--11----11----9----11--9--|
----7--7----4----7--7--|----9---9-----4----7----|--9-----9-----7----9---7--|


                                                                       
-------------------------|-----------------------|--------------------|
-------------------------|-----------------------|--------------------|
-------------------------|-----------------------|--------------------|
----7--7----9----11--11--|----9--9----6----9--9--|----7--7------------|
----7--7----9----11--11--|----9--9----6----9--9--|----7--7------------|
----5--5----7----9---9---|----7--7----4----7--7--|----5--5------------|


                                                                             
--------------------------|-------------------------|-----------------------|
--------------------------|-------------------------|-----------------------|
--------------------------|-------------------------|-----------------------|
--11----11----9----11--9--|----7--7----9----11--11--|----9--9----6----9--9--|
--11----11----9----11--9--|----7--7----9----11--11--|----9--9----6----9--9--|
--9-----9-----7----9---7--|----5--5----7----9---9---|----7--7----4----7--7--|


                                                                              
------------------------|--------------------------|-------------------------|
------------------------|--------------------------|-------------------------|
------------------------|--------------------------|-------------------------|
----11--11----6----9----|--11----11----9----11--9--|----7--7----9----11--11--|
----11--11----6----9----|--11----11----9----11--9--|----7--7----9----11--11--|
----9---9-----4----7----|--9-----9-----7----9---7--|----5--5----7----9---9---|


                                                                
-----------------------|--------------------|------------------|
-----------------------|--------------------|------------------|
-----------------------|--------------------|------------------|
----9--9----6----9--9--|----7--7------------|------------------|
----9--9----6----9--9--|----7--7------------|------------------|
----7--7----4----7--7--|----5--5------------|------------------|


                                               
------------------------|--------------------||
------------------------|--------------------||
------------------------|--6/-----------0----||
------------------------|--6/-----------0----||
-------------2---7---6--|--4/-----------0----||
--3---4---5-------------|--------------------||


Comments