Lordi - Devil Is A Loser Chords & Tabs

 

Devil Is A Loser Chords & Tabs

Lordi Chords & Tabs

Version: 2 Type: Bass Tab

Devil Is A Loser Bass Tab

ARTIST - LORDI
SONG - DEVIL IS A LOSER
ALBUM - GET HEAVY
TUNING - STANDARD
TABBED BY 24fRETSoFfURY

i didnt tab this out, i got it from a mate and i dont know where he got it.
there is some variations from the version i copied but it is mostly the same,
there may be something before the intro but this is how we play it.

INTRO
|----------------------------------------------------------------|
|----------------------------------------------------------------|
|----------------------------------------------------------------|
|-0--0-3-5-5b-0--0-3-5-5b-0--0-3-5-5b-0--3-5-0-------------------|

VERSE
|-------------------------------------------------------------------------|
|-------------------------------------------------------------------------|
|-44444444-44444444-44444444-44444444-22222222----------------------------|x2
|----------------------------------------------44444444-55554445-44444222-|

PRE CHORUS
|----------------------------------------------------------------|
|----------------------------------------------------------------|
|-77777777--------55555555--------33333333----8-7-x-7-6-x--------|
|---------77777777--------55555555--------3---------------4------|

CHORUS
|----------------------------------------------------------------|
|----------------------------------------------------------------|
|-4--x-4--------2--4-4--2-------7777------776--------------------|
|--------5--x-5------------5555------7777------------------------|

|----------------------------------------------------------------|
|----------------------------------------------------------------|
|-4--x-4--------2--4-4--2-------7777-----------------------------|
|--------5--x-5------------5555------7--7-----0------------------|

POST CHORUS
|----------------------------------------------------------------|
|----------------------------------------------------------------|
|----------------------------------------------------------------|
|-0-3-5-5b-0--0-3-5-5b-0--0-3-5-5b-0--3-5-0--0-------------------|

VERSE
|-------------------------------------------------------------------------|
|-------------------------------------------------------------------------|
|-44444444-44444444-44444444-44444444-22222222----------------------------|x2
|----------------------------------------------44444444-55554445-44444222-|
[ Tab from: http://www.guitartabs.cc/tabs/l/lordi/devil_is_a_loser_btab_ver_2.html ]
PRE CHORUS
|----------------------------------------------------------------|
|----------------------------------------------------------------|
|-77777777--------55555555--------33333333----8-7-x-7-6-x--------|
|---------77777777--------55555555--------3---------------4------|

CHORUS
|----------------------------------------------------------------|
|----------------------------------------------------------------|
|-4--x-4--------2--4-4--2-------7777------776--------------------|
|--------5--x-5------------5555------7777------------------------|

|----------------------------------------------------------------|
|----------------------------------------------------------------|
|-4--x-4--------2--4-4--2-------7777-----------------------------|
|--------5--x-5------------5555------7--7-----0------------------|

QUIET PART
|----------------------------------------------------------------|
|----------------------------------------------------------------|
|----------------------------------------------------------------|
|-0---5-5b-0------5-5b-0------5-5b-0------5-5b-0------5-5b-0-----|

|----------------------------------------------------------------|
|----------------------------------------------------------------|
|----------------------------------------------------------------|
|-0-3-5-5b-0--0-3-5-5b-0--0-3-5-5b-0--0-3-5-0--------------------|

BRIDGE
|------------------------------------------------------------------------|
|-------------4-3-------------4-3--------------5-4-----------------------|
|-6-66---4-44-----6-66---4-44------7-77---5-55-----7-77----8-7-x-7-6-x---|
|-----777-------------777--------------888-------------888-------------4-|

CHORUS
|----------------------------------------------------------------|
|----------------------------------------------------------------|
|-4--x-4--------2--4-4--2-------7777------776--------------------|
|--------5--x-5------------5555------7777------------------------|
                                                                   x2
|----------------------------------------------------------------|
|----------------------------------------------------------------|
|-4--x-4--------2--4-4--2-------7777-----------------------------|
|--------5--x-5------------5555------7-7------0------------------|

ENDING
|----------------------------------------------------------------|
|----------------------------------------------------------------|
|------7777-------------7777-------------------------------------|
|-5555------7-7----5555------7-7---------------------------------|