Lord Belial - The Art Of Dying Chords & Tabs

 

The Art Of Dying Chords & Tabs

Lord Belial Chords & Tabs

Version: 1 Type: Tab 0 ratings
1 star 2 stars 3 stars 4 stars 5 stars
comments

The Art Of Dying Tab

   
                           
                        LORD BELIAL-THE ART OF DYING
                        From the Album KISS THE GOAT
                        Copyright 1994 WAR (Wrong Again Records)
                       
                        Version 1.0 - February 1999


Transcribed by: Zack Demianczyk(MTD)
 email Zack at dio@nauticom.net, for questions or corrections

Visit my homepage at http://www.angelfire.com/ak2/MalignantTabs/index.html
(Malignant Tablature Dominion)

Check Out DEATH WARP, With More Transcriptions On It:
               http://tiger.towson.edu/~dalvis1



/     slide up
\     slide down
p     pull on
h     hammer on
~     vibrato
.     slight pm



Standard Tuning: (E,A,D,G,B,E)


|-1-3-5-3\--0--1-0----|
|-------------------3-|
|---------------------|
|-0-----------------0-|
|-----------3---------|
|---------------------|
    
                          .
|-1-0h1p0---0------0-1-0------|
|-------------3-2---------2-3-|
|-----------------------------|
|-0-------------------------0-|
|------------------3----------|
|-----------------------------|

|-1-3-5-3--0--1-0----|
|------------------3-|
|--------------------|
|-0----------------0-|
|----------3---------|
|--------------------|
    
                          .
|-1-0h1p0---0------0-1-0------|
|-------------3-2---------2-3-|
|-----------------------------|
|-0-------------------------0-|
|------------------3----------|
|-----------------------------|

                             1.___ 2.___ 3.___ 4.___
|---------------------------|--0--|--5--|--0--|--5--|
|--3-3------0-----2-3-2h3p2-|-----|-----|-----|-----|
|-------------0-------------|-----|-----|-----|-----|
|--0------------------------|-----|-----|--2--|--0--|
|-----------------0---------|-----|--0--|-----|-----|
|--1----/3------------------|-----|-----|-----|-----|


|-1-3-5-3\--0--1-0----|
|-------------------3-|
|---------------------|
|-0-----------------0-|
|-----------3---------|
|---------------------|
    
                          .
|-1-0h1p0---0------0-1-0------|
|-------------3-2---------2-3-|
|-----------------------------|
|-0-------------------------0-|
|------------------3----------|
|-----------------------------|
[ Tab from: http://www.guitartabs.cc/tabs/l/lord_belial/the_art_of_dying_tab.html ]
|-1-3-5-3--0--1-0----|
|------------------3-|
|--------------------|
|-0----------------0-|
|----------3---------|
|--------------------|
    
                          .
|-1-0h1p0---0------0-1-0------|
|-------------3-2---------2-3-|
|-----------------------------|
|-0-------------------------0-|
|------------------3----------|
|-----------------------------|

                             1.___ 2.___ 3.___ 4.___
|---------------------------|--0--|--5--|--0--|--5--|
|--3-3------0-----2-3-2h3p2-|-----|-----|-----|-----|
|-------------0-------------|-----|-----|-----|-----|
|--0------------------------|-----|-----|--2--|--0--|
|-----------------0---------|-----|--0--|-----|-----|
|--1----/3------------------|-----|-----|-----|-----|


|------------|-------|-3-----|
|-1-1h3-1-0--|-3-1-0-|-3-1-0-|
|------------|-------|-----0-|
|------------|-0-----|-0-----|
|-0----------|-------|-------|
|------------|-1---3-|-----3-|


|-0h1-1--8--1--------1--0---0h1-1--3-1------3--0-|
|--------------3--1-----------------------3------|
|------------------------------------------------|
|-0------------0-----0------0--------------------|
|--------------------------------------0-------3-|
|--------------1---------------------------------|



|-1-3-5-3\--0--1-0----|
|-------------------3-|
|---------------------|
|-0-----------------0-|
|-----------3---------|
|---------------------|
    
                          .
|-1-0h1p0---0------0-1-0------|
|-------------3-2---------2-3-|
|-----------------------------|
|-0-------------------------0-|
|------------------3----------|
|-----------------------------|

|-1-3-5-3--0--1-0----|
|------------------3-|
|--------------------|
|-0----------------0-|
|----------3---------|
|--------------------|
    
                          .
|-1-0h1p0---0------0-1-0------|
|-------------3-2---------2-3-|
|-----------------------------|
|-0-------------------------0-|
|------------------3----------|
|-----------------------------|

 ending 
|----5--------|
|-------3h5p3-|
|-------------|
|-------0-----|
|-0-----------|
|-------------|


This tab is not permitted or any others off my page to by posted anywhere without
asking me in head of time. For all the time it takes me to do some of these tabs please
ask me first, I would appreciate it, Zack Demianczyk (dio@nauticom.net)
Comments