Lord Belial - Black Winter Blood-bath Chords & Tabs

 

Black Winter Blood-bath Chords & Tabs

Lord Belial Chords & Tabs

Version: 1 Type: Tab 0 ratings
1 star 2 stars 3 stars 4 stars 5 stars
comments

Black Winter Blood-bath Tab

   
Tuning: Down a half step to D#

In typical black metal style theres a lot of fast picking.
So instead of tabbing out every single note.  I will just be tabbing
it as tremolo picking.  I will also put in the time at which each
riff FIRST appears.

  Riff 1 (play each CHORD twice)
D#:---------------------------------|
A#:---------------------------------|
F#:---------------------------------|
C#:---------------------------------|
G#:-4-4-4-4-4-4-4-4-4-4-4-4-4-5-8-7-|
D#:-2-2-2-2-2-2-2-2-2-2-2-2-2-3-6-5-|
(on 2nd time, other guitar does pick slide)

  Riff 2 (play each CHORD twice)
D#:---------------------------------|
A#:---------------------------------|
F#:---------------------------------|
C#:---------------------------------|
G#:-4-4-4-4-4-4-4-4-4-4-4-4-4-5-8-7-|
D#:-2-2-2-2-2-2-0-3-2-2-2-2-2-3-6-5-|

  Riff 3 (play throughout riff 4)
D#:----------------------------------------------|
A#:----------------------------------------------|
F#:----------------------------------------------|
C#:-2----------------------------3---------------|
G#:-2----------------------------3---------------|
D#:-0----------------------------1---------------|

  Riff 4 (play with riff 3)
D#:----------------------------------------|
A#:----------------------------------------|
F#:----------------------------------------|
C#:-------7--9--10--9-10-9-7--------10--12-|
G#:-7--7----------------------7--8---------|
D#:----------------------------------------|
                     h  p p

  Riff 4 (continued)
D#:--------------------------|----------------|
A#:--------------------------|----------------|
F#:--------------------------|----------------|
C#:-10-12-10--9-10-9--7-9-7--|------7--9--10--|
G#:--------------------------|7--7------------|
D#:--------------------------|----------------|
      h  p     h  p    h p

  Riff 4 (continued)
D#:-------------------------------|
A#:-------------------------------|
F#:-------------------------------|
C#:-9-10-9-7----------------------|
G#:-----------7--8------8-7-------|
D#:-------------------------10----|
     h  p p              p
   Riff 5
D#:---------------------------------------------|
A#:---------------------------------------------|
F#:---------------------------------------------|
C#:---------------------------------------------|
G#:-4------2-4-5----4--2--4------2-4-5----------|
D#:-2------2-2-3----3--3--2------2-2-3----------|
 tm.............................................

   Riff 6 (played with Riff 5)
D#:---------------------------------------------|
A#:---------------------------------------------|
F#:---------------------------------------------|
C#:-------------------------------------8--7--5-|
G#:-4------2-4-5----4--2--4------2-4-5----------|
D#:-2------2-2-3----3--3--2------2-2-3----------|
 tm.............................................
[ Tab from: http://www.guitartabs.cc/tabs/l/lord_belial/black_winter_blood_bath_tab.html ]
   Riff 7
D#:---------------------------------------------|
A#:---------------------------------------------|
F#:---------------------------------------------|
C#:-4----2---4-5----4--2--4----2----------------|
G#:-2----2---2-3----3--3--2----2----5----4--2---|
D#:---------------------------------3----3--3---|
 tm.............................................

   Riff 8
D#:---------------------------------------------------|
A#:---------------------------------------------------|
F#:----10---9--10---9-----9-------10-14-10--9----5----|
C#:-0--12--10--12--10-----7----0--12-12-12-10----7----|
G#:---------------------------------------------------|
D#:---------------------------------------------------|
 tm...................................................
   Riff 9
D#:---------------------------------------------------|
A#:---------------------------------------------------|
F#:---------------------------------------------------|
C#:-7--9--10--14-13------7--9--10--14--15--14----10---|
G#:-0--0---0--12-11------0--0---0--12--13--12-------9-|
D#:--------------11-----------------------------------|
 tm..............        tm..........................

   Riff 10 (played with riff 9)
D#:---------------------------------------------------|
A#:---------------------------------------------------|
F#:-9--9---9-------------9--9---9---------------------|
C#:-7--9--10--14-13--X\\-7--9--10--14--15--14-12-10-9-|
G#:-----------12-11----------------12--13-------------|
D#:--------------11-----------------------------------|
 tm..............        tm..........................


   Riff 11
D#:-----------------------|
A#:-----------------------|
F#:-4-------5-------4-----|
C#:-5-------7-------5-----|
G#:-----------------------|
D#:-----------------------|
 tm.................
   Riff 12 (played with riff 11, 1st and 2nd time)
D#:-----------------------|
A#:-----------------------|
F#:-----------------------|
C#:-2-------3-------2-----|
G#:-2-------3-------2-----|
D#:-0-------1-------0-----|
Riff 13 (played with riff 11, 3rd and 4th time)
D#:-----------------------|
A#:-----------------------|
F#:-----4-------5-7-------|
C#:---5---5---7-----2-----|
G#:-----------------2-----|
D#:-0-------1-------0-----|
 tm.................

   Riff 14
D#:-----------------------------|-------------------------|
A#:-----------------------------|-------------------------|
F#:-9----5--10--4----5---4--5-4-|-9----5--7-9-10----4-----|
C#:-7----7---7--2----3---3--3-3-|-7----7--7-7--0----2-----|
G#:-----------------------------|-------------------0-----|
D#:-----------------------------|-------------------------|
 tm......................................................

   Riff 15 (played with Riff 14)
D#:-----------------------------|-------------------------|
A#:-----------------------------|-------------------------|
F#:-9----5--10------------------|-9----5--7-9-10----------|
C#:-7----7---7--2----3----------|-7----7--7-7--0----5-----|
G#:-------------2----3----------|---------------------7-5-|
D#:-------------0----1----------|-------------------------|
 tm.......................................................

   Riff 16
D#:---------------------------------------|
A#:---------------------------------------|
F#:---------------------------------------|
C#:-9--------9--------4-----5-4-5----4----|
G#:-7--------7--------2-----2-2-3----5----|
D#:----------8----------------------------|
 tm.......................................

enjoy!!
Comments