Longwave - Tell Me Im Wrong Chords & Tabs

 

Tell Me Im Wrong Chords & Tabs

Longwave Chords & Tabs

Version: 1 Type: Tab

Tell Me Im Wrong Tab

Intro:

e----6----6----4--3--1--3----4--3--1--3----|
B----8----6----4--4--3--4----4--4--3--4----|
G----8----7----5--3--3--3----5--3--3--3----|
D------------------------------------------|
A------------------------------------------|
E------------------------------------------|


Verses:
[ Tab from: http://www.guitartabs.cc/tabs/l/longwave/tell_me_im_wrong_tab.html ]
e------6---6---6---6-----6---6---6---6-----4---4---4---4-----6---6---6---6----|
B----8---8---8---8-----6---6---6---6-----4---4---4---4-----6---6---6---6------|
G----8---8---8---8-----7---7---7---7-----5---5---5---5-----7---7---7---7------|
D-----------------------------------------------------------------------------|
A-----------------------------------------------------------------------------|
E-----------------------------------------------------------------------------|
     v ^ v ^ v ^ v ^ ...

Chorus:

e----6-6-6-6-6-6-6-6---6-6-6-6-6-6-6-6---4-4-4-4-4-4-4-4---6-6-6-6-6-6-6-6----|
B----8-8-8-8-8-8-8-8---6-6-6-6-6-6-6-6---4-4-4-4-4-4-4-4---6-6-6-6-6-6-6-6----|
G----8-8-8-8-8-8-8-8---7-7-7-7-7-7-7-7---5-5-5-5-5-5-5-5---7-7-7-7-7-7-7-7----|
D----8-8-8-8-8-8-8-8---8-8-8-8-8-8-8-8---6-6-6-6-6-6-6-6---8-8-8-8-8-8-8-8----|
A----6-6-6-6-6-6-6-6---8-8-8-8-8-8-8-8---6-6-6-6-6-6-6-6---8-8-8-8-8-8-8-8----|
E----------------------6-6-6-6-6-6-6-6---4-4-4-4-4-4-4-4---6-6-6-6-6-6-6-6----|