Longfellow - Ten Seconds Chords & Tabs

 

Ten Seconds Chords & Tabs

Longfellow Chords & Tabs

Version: 1 Type: Tab 0 ratings
1 star 2 stars 3 stars 4 stars 5 stars
comments

Ten Seconds Tab

TEN SECONDS - Longfellow


By:  Gary(TheAtaris07@aol.com)

PM - palm mute
~ - let ring out
4x
4x - mute after strumming
2x

Intro:  Both Guitars
e|---------------------------------------------------------------------------|
B|---------------------------------------------------------------------------|
G|4-4--4-4-4--7-7-7--7-7-7--4-4-4--4-4-4--7-7-7--7-7-7--4-4--4-4-4-4--4-4----|
D|4-4--4-4-4--7-7-7--7-7-7--4-4-4--4-4-4--7-7-7--7-7-7--4-4--4-4-4-4--4-4----|
A|2-2--2-2-2--5-5-5--5-5-5--2-2-2--2-2-2--5-5-5--5-5-5--2-2--2-2-2-2--2-2----|
E|---------------------------------------------------------------------------|
 PM    PM.    PM.    PM.    PM.    PM.    PM.    PM.         PM.....

Intro Cont'd:  Both Guitars
e|---------------------------------------------------------------------------|
B|---------------------------------------------------------------------------|
G|4-4-4-4--7-7-7---------4-4--4-4-4-4--4-4--4-4-4-4--7-7-7-------------------|
D|4-4-4-4--7-7-7--7-7-7--4-4--4-4-4-4--4-4--4-4-4-4--7-7-7-7-7-7-------------|
A|2-2-2-2--5-5-5--7-7-7--2-2--2-2-2-2--2-2--2-2-2-2--5-5-5-7-7-7-------------|
E|----------------5-5-5------------------------------------5-5-5-------------|
  PM.....                     PM.....       PM.....

Verse:  Guitar 1 (4x)  "Half of me wants to forget..."
e|---------------------------------------------------------------------------|
B|---------------------------------------------------------------------------|
G|4-4-4-4-4-4-------------4-4-4-4-4-4----------------------------------------|
D|4-4-4-4-4-4-5-5-5-5-5-5-4-4-4-4-4-4-5-5-5-5-5-5x---------------------------|
A|2-2-2-2-2-2-5-5-5-5-5-5-2-2-2-2-2-2-5-5-5-5-5-5x---------------------------|
E|------------3-3-3-3-3-3-------------3-3-3-3-3-3x---------------------------|
  
Verse:  Guitar 2 (4x)  "Half of me wants to forget..."
e|---------------------------------------------------------------------------|
B|---------------------------------------------------------------------------|
G|11-11-11-11-11-11-7-7-7-7-7-7-11-11-11-11-11-11-7-7-7-7-7-7----------------|
D|-x--x--x--x--x--x-x-x-x-x-x-x--x--x--x--x--x--x-x-x-x-x-x-x----------------|
A|-9--9--9--9--9--9-5-5-5-5-5-5--9--9--9--9--9--9-5-5-5-5-5-5----------------|
E|---------------------------------------------------------------------------|

Bridge:  Both Guitars  ???
e|---------------------------------------------------------------------------|
B|---------------------------------------------------------------------------|
G|---------------------------------------------------------------------------|
D|---------------------------------------------------------------------------|
A|---------------------------------------------------------------------------|
E|---------------------------------------------------------------------------|

Chorus:  Guitar 1  "Don't say that you know what..."
e|---------------------------------------------------------------------------|
B|---------------------------------------------------------------------------|
G|4-4-4-4-4-4-------------4-4-4-4-4-4-------------4-4-4-4-4-4----------------|
D|4-4-4-4-4-4-5-5-5-5-5-5-4-4-4-4-4-4-5-5-5-5-5-5-4-4-4-4-4-4-5-5-5-5-5-5----|
A|2-2-2-2-2-2-5-5-5-5-5-5-2-2-2-2-2-2-5-5-5-5-5-5-2-2-2-2-2-2-5-5-5-5-5-5----|
E|------------3-3-3-3-3-3-------------3-3-3-3-3-3-------------3-3-3-3-3-3----|

Chorus Cont'd:  Guitar 1
e|---------------------------------------------------------------------------|
B|---------------------------------------------------------------------------|
G|4-4-4-4-4-4-------------4~-------------------------------------------------|
D|4-4-4-4-4-4-5-5-5-5-5-5-4~-------------------------------------------------|
A|2-2-2-2-2-2-5-5-5-5-5-5-2~-------------------------------------------------|
E|------------3-3-3-3-3-3----------------------------------------------------|
[ Tab from: http://www.guitartabs.cc/tabs/l/longfellow/ten_seconds_tab.html ]
Chorus:  Guitar 2  "Don't say that you know what..."
e|---------------------------------------------------------------------------|
B|---------------------------------------------------------------------------|
G|11-11-11-11-11-11-7-7-7-7-7-7-11-11-11-11-11-11-7-7-7-7-7-7----------------|
D|-x--x--x--x--x--x-x-x-x-x-x-x--x--x--x--x--x--x-x-x-x-x-x-x----------------|
A|-9--9--9--9--9--9-5-5-5-5-5-5--9--9--9--9--9--9-5-5-5-5-5-5----------------|
E|---------------------------------------------------------------------------|

Chorus Cont'd:  Guitar 2
e|---------------------------------------------------------------------------|
B|---------------------------------------------------------------------------|
G|11-11-11-11-11-11-7-7-7-7-7-7-11-11-11-11-11-11-7-7-7-7-7-7-11~------------|
D|-x--x--x--x--x--x-x-x-x-x-x-x--x--x--x--x--x--x-x-x-x-x-x-x--x-------------|
A|-9--9--9--9--9--9-5-5-5-5-5-5--9--9--9--9--9--9-5-5-5-5-5-5--9~------------|
E|---------------------------------------------------------------------------|

2nd Bridge:  Guitar 2
e|---------------------------------------------------------------------------|
B|---------------------------------------------------------------------------|
G|7-6------------------------------------------------------------------------|
D|x-x-7-9~-------------------------------------------------------------------|
A|5-4-x-x--------------------------------------------------------------------|
E|----5-7~-------------------------------------------------------------------|

2nd Verse:  (Bass only)  You haven't sat back
                         And watched your life
                         Pass before your eyes
                         Knowing it will never
                         Will never, will never
                         Will never work out

2nd Chorus:  Both Guitars  (2x) (Start with pickslide)
e|---------------------------------------------------------------------------|
B|---------------------------------------------------------------------------|
G|4-4--4-4-4--------------7-7-7--7-7-7---------------------------------------|
D|4-4--4-4-4-5-5-5--5-5-5-7-7-7--7-7-7-7-7-7--7-7-7--------------------------|
A|2-2--2-2-2-5-5-5--5-5-5-5-5-5--5-5-5-7-7-7--7-7-7--------------------------|
E|-----------3-3-3--3-3-3--------------5-5-5--5-5-5--------------------------|
 PM    PM.   PM.    PM.   PM.    PM.   PM.    PM.

Outro:  Guitar 1  
e|---------------------------------------------------------------------------|
B|---------------------------------------------------------------------------|
G|4-4--4-4-4--------------7-7-7--7-7-7--------------4-4--4-4-4---------------|
D|4-4--4-4-4-5-5-5--5-5-5-7-7-7--7-7-7-7-7-7--7-7-7-4-4--4-4-4-5-5-5--5-5-5--|
A|2-2--2-2-2-5-5-5--5-5-5-5-5-5--5-5-5-7-7-7--7-7-7-2-2--2-2-2-5-5-5--5-5-5--|
E|-----------3-3-3--3-3-3--------------5-5-5--5-5-5------------3-3-3--3-3-3--|
 PM    PM.   PM.    PM.   PM.    PM.   PM.    PM.  PM    PM.   PM.    PM.

Outro Cont'd:  Guitar 1
e|---------------------------------------------------------------------------|
B|---------------------------------------------------------------------------|
G|7-7-7--7-7-7--------------4~------7~------4-4--4-4-4-----------------------|
D|7-7-7--7-7-7-7-7-7--7-7-7-4~--5~--7~--7~--4-4--4-4-4-5-5-5--5-5-5----------|
A|5-5-5--5-5-5-7-7-7--7-7-7-2~--5~--5~--7~--2-2--2-2-2-5-5-5--5-5-5----------|
E|-------------5-5-5--5-5-5-----3~------5~-------------3-3-3--3-3-3----------|
  PM.    PM.   PM.    PM.                  PM    PM.   PM.    PM.

Outro Cont'd:  Guitar 1
e|---------------------------------------------------------------------------|
B|---------------------------------------------------------------------------|
G|7-7-7--7-7-7----------------4x---------------------------------------------|
D|7-7-7--7-7-7-7-7-7--7-7-7-7-4x---------------------------------------------|
A|5-5-5--5-5-5-7-7-7--7-7-7-7-2x---------------------------------------------|
E|-------------5-5-5--5-5-5-5------------------------------------------------|
  PM.    PM.   PM.    PM.

Outro:  Guitar 2  (You should be able to hear where it starts and ends)
e|2-0-2-5-2-0----------------------------------------------------------------|
B|---------------------------------------------------------------------------|
G|---------------------------------------------------------------------------|
D|---------------------------------------------------------------------------|
A|---------------------------------------------------------------------------|
E|---------------------------------------------------------------------------|

Pretty basic song and it kicks major ass too!!!  E-mail me with any questions.
Comments