Long Beach Dub Allstars - Soldiers Chords & Tabs

 

Soldiers Chords & Tabs

Long Beach Dub Allstars Chords & Tabs

Version: 1 Type: Bass Tab 0 ratings
1 star 2 stars 3 stars 4 stars 5 stars
comments

Soldiers Bass Tab

Song: Soldiers
Band: Long Beach Dub All Stars
Album: Right Back
Tabbed by: Rob MacGuffie (SubDubLBC@aol.com)

[ Tab from: http://www.guitartabs.cc/tabs/l/long_beach_dub_allstars/soldiers_btab.html ]
 Main Part:
 |--------------------------------------------------------------------|
 |-----6-10-----6-10-----6-10-----6-10-----6-10-----6-10---9--9--9-9--|
 |-7-7------7-7------7-7------7-7------7-7------7-7-------7--7--7---7-|
 |--------------------------------------------------------------------|

 Variation:
 |---------------------------------|
 |---------------------------------|
 |-------2-------2-------2-------2-|
 |-0-0-0---0-0-0---0-0-0---0-0-0---|

Comments