Long Beach Dub Allstars - Pass It On Chords & Tabs

 

Pass It On Chords & Tabs

Long Beach Dub Allstars Chords & Tabs

Version: 1 Type: Bass Tab 0 ratings
1 star 2 stars 3 stars 4 stars 5 stars
comments

Pass It On Bass Tab

Song: Pass it On
Band: Long Beach Dub All Stars feat. Half Pint
Album: Right Back
Tabbed by: Rob MacGuffie (SubDubLBC@aol.com)

[ Tab from: http://www.guitartabs.cc/tabs/l/long_beach_dub_allstars/pass_it_on_btab.html ]
 Main part:
 |----------------------|
 |-----6---6------------|
 |-7-7---7--------------|
 |-----------7--7-7-7-7-|

 Near the end:
 |-------------|
 |-------------|
 |-7--7--------|
 |-------7-7-7-|

Comments