Long Beach Dub Allstars - My Own Life Chords & Tabs

 

My Own Life Chords & Tabs

Long Beach Dub Allstars Chords & Tabs

Version: 2 Type: Bass Tab 0 ratings
1 star 2 stars 3 stars 4 stars 5 stars
comments

My Own Life Bass Tab

Song: My Own Life
Band:Long Beach Dub All Stars
Album: Right Back
Tabbed by: Rob MacGuffie (SubDubLBC@aol.com)
Tuning: Standard

[ Tab from: http://www.guitartabs.cc/tabs/l/long_beach_dub_allstars/my_own_life_btab_ver_2.html ]
Verse: (this part has a few variations, not to hard to 
diferentiate from this verse though.)
|------------------------------------------------------------------|
|------------------------------------------------------------------|
|-------5h7-7-7-----------5-5-5-4----------------------------------|
|-5-5-5----------5-5-5--5-----------7-7-7--7-5-5-5--5-5-5--5-4-4-4-|

Chorus:
|---------------------------------------------------------------------|
|---------------------------------------------------------------------|
|-----------5-5-5---------------------5-5----5-7-7----7--9-9---7-9--9-|
|-5-5-5--5---------5-5-5h7--5-4-4-4-------5--------7---------9--------|

The End of the song where is goes to a really hard punk rock
is just the verse then the chorus, one after the other, double tempo
Comments