Long Addiction - Time Waits For No One Chords & Tabs

 

Time Waits For No One Chords & Tabs

Long Addiction Chords & Tabs

Version: 1 Type: Bass Tab 0 ratings
1 star 2 stars 3 stars 4 stars 5 stars
comments

Time Waits For No One Bass Tab


LONG ADDICTION
TIME WAIT'S FOR NO ONE - BASS TAB
WRITTEN BY - PAUL CURTIS-HARPER
MUSIC BY LONG ADDICTION

  VERSE - 1

g------------------------------------------------------------------
d------------------------------------------------------------------
a-------------------------0-0-0-0---------0-0-0-0------------------
E-0-0-0-0-0-0-0-0-3-3-3-3---------3-3-3-3---------0-0-0-0-0-0-0-0-- x2
[ Tab from: http://www.guitartabs.cc/tabs/l/long_addiction/time_waits_for_no_one_btab.html ]
	This is played only once on the first intro as the first bar
	is played only by rhythem guitar, at all other time's it is
	played through twice like everything else

  CHORUS

g------------------------------------------------------------------
d------------------------------------------------------------------
a---------0-0-0-0--------------------------------------------------
E-3-3-3-3---------0-0-0-0-0-12-0-12-0--12-------------------------- x2

	At the end of the chorus there is a slide down from fret 12
	to the open note of the E string to go back into the intro

  VERSE - 2
	Verse 2 is played the same as verse 1

  CHORUS

  INTRO

  CHORUS x2

  INTRO x2
Comments