Lonestar - Mr Mom Chords & Tabs

 

Mr Mom Chords & Tabs

Lonestar Chords & Tabs

Version: 2 Type: Tab 0 ratings
1 star 2 stars 3 stars 4 stars 5 stars
comments

Mr Mom Tab

Tabbed by Nathong (XlxPyR0xIX@aol.com)

"Mr. Mom" by Lonestar




main riff
e------------------------------------------------|
b------------------------3-----------------------|
g-------3-5~-3--------3-----5~-3-----------------|
d--3h5-----------3h5--------------3-5------------|
a--------------------------------------5---------|
e------------------------------------------------|

[ Tab from: http://www.guitartabs.cc/tabs/l/lonestar/mr_mom_tab_ver_2.html ]
It seems that they are doing some muteing with this sort of pattern

e---x--x-x-x----x--x-x-x---x--x-x-x-------------------------|
b---x--x-x-x----x--x-x-x---x--x-x-x-------------------------|
g---x--x-x-x----x--x-x-x---x--x-x-x-------------------------|
d---x--x-x-x----x--x-x-x---x--x-x-x-------------------------|
a---x--x-x-x----x--x-x-x---x--x-x-x-------------------------|
e---x--x-x-x----x--x-x-x---x--x-x-x-------------------------|
Comments