Lonestar - Amazed Chords & Tabs

 

Amazed Chords & Tabs

Lonestar Chords & Tabs

Version: 1 Type: Bass Tab 0 ratings
1 star 2 stars 3 stars 4 stars 5 stars
comments

Amazed Bass Tab

lonestar - amazed
evan hardy (evan_hardy@hotmail.com)

intro:
g--------------------------------------------------------
d--------------------------------------------------------
a--------------------------------------------------------        
e-3--3------------------------------------------------------


verse:
g---------------------------------------------------------
d---------------------------------------------------------
a-----5--7-/-3--------------------------------------------      x3
e--3-------------------------------------------------------

pre-chorus:
[ Tab from: http://www.guitartabs.cc/tabs/l/lonestar/amazed_btab.html ]
g-------------------------------------------------------
d-------------------------------------------------------
a-1----6--------------------------------------------------
e---1----------------------------------------------------


chorus:
g---------------------------------------------------------
d---------------------------------------------------------
a--3-----------------3-------------6---3----------------------
e-----1---3---5-/-1-----1----5-/1-------------------------------

there yah go it's pretty easy, but there is one part 
after the chorus that i can't figure out 
but i'm sure you'll be ablr to if you play by ear! 
it's easy for me to play on my squire/fender jazz

if you find that other part e-mail me at :evan_hardy@hotmail.com
Comments