London Grammar - Wasting My Young Years Chords & Tabs

 

Wasting My Young Years Chords & Tabs

London Grammar Chords & Tabs

Version: 1 Type: Tab 0 ratings
1 star 2 stars 3 stars 4 stars 5 stars
comments

Wasting My Young Years Tab

-------------------------------------------------------------------------------
                             Wasting My Young Years - London Grammar
-------------------------------------------------------------------------------
Tabbed by: MGBZH

Tuning: Standard



Simple but listen carefully the verses, the rythm changes slightly between lines.



  Verse

e|---------------------------------------------------------------------------|
B|---------------------------------------------------------------------------|
G|---------------------------------------------------------------------------|
D|-14---17---19---21-21-19-/-17-14---x3------14---17---19--------------------| 
A|---------------------------------------------------------------------------|
E|---------------------------------------------------------------------------|


 Chorus
[ Tab from: http://www.guitartabs.cc/tabs/l/london_grammar/wasting_my_young_years_tab.html ]
e|---------------------------------------------------------------------------|
B|---------------------------------------------------------------------------|
G|-5-5-5-5-------4----------------2-2-2-2--2-2-2-2---------------------------| 
D|---------------------------------------------------------------------------|
A|---------------------------------------------------------------------------|
E|---------------------------------------------------------------------------|
 P.M.-----------------------------------------------------
  
  I'm wasting my young years      it doesn't matter here
  I'm chasing    old ideas        it doesn't matter here


e|---------------------------------------------------------------------------|
B|---------------------------------------------------------------------------|
G|---5---5---5---5h7p5----4---4---4---4-----2---2---2---2---2---2---2--------| x2
D|-7---7---7---7--------5---5---5---5-----4---4---4---4---4---4---4----------|
A|---------------------------------------------------------------------------|
E|---------------------------------------------------------------------------|
  P.M.----------------------------------------------------------------- 
                      Maybe We are       We are          Maybe I'm wasting my 
   young years       Maybe We are       We are 

   
  Maybe I'm wasting my  young years 
Comments