London Dobbs - Sunrise Chords & Tabs

 

Sunrise Chords & Tabs

London Dobbs Chords & Tabs

Version: 1 Type: Tab 0 ratings
1 star 2 stars 3 stars 4 stars 5 stars
comments

Sunrise Tab

   
#----------------------------------PLEASE NOTE---------------------------------#
#This file is the author's own work and represents their interpretation of the #
#song. You may only use this file for private study, scholarship, or research. #
#------------------------------------------------------------------------------##


Gtr I (E A D G B E) - 'Untitled'

  Gtr I
|---2-----2-----3-----3-----3-----3-----2-----2---|
|-----3-----3-----3-----3-----3-----3-----3-----3-|
|-2-----2-----2-----2-----0-----0-----0-----0-----|
|-------------------------------------------------|
|-------------------------------------------------|
|-------------------------------------------------|


|---2-----2-----3-|-----3-----3-----|-3-----2-----2------|
|-----3-----3-----|-3-----3-----3---|---3-----3-----3----|
|-2-----2-----2---|---2-----0-----0-|-----0-----0--------|
|-----------------|-----------------|--------------------|
|-----------------|-----------------|--------------------|
|-----------------|-----------------|--------------------|


|-2-2-2-2-2-2-3-3-3-3-3-3-3-3-3-3-3-2-2-2-2-2-2-|
|-3-3-3-3-3-3-3-3-3-3-3-3-3-3-3-3-3-3-3-3-3-3-3-|
|-2-2-2-2-2-2-2-2-2-2-2-0-0-0-0-0-0-0-0-0-0-0-0-|
|-----------------------------------------------|
|-----------------------------------------------|
|-----------------------------------------------|


|-2-2-2-2-2-2-3-3-|-3-3-3-3-3-3-3-3-|-3-2-2-2-2-2-2--|
|-3-3-3-3-3-3-3-3-|-3-3-3-3-3-3-3-3-|-3-3-3-3-3-3-3--|
|-2-2-2-2-2-2-2-2-|-2-2-2-0-0-0-0-0-|-0-0-0-0-0-0-0--|
|-----------------|-----------------|----------------|
|-----------------|-----------------|----------------|
|-----------------|-----------------|----------------|


|-2-2-2-2-2-2-3-3-|-3-3-3-3-3-3-3-3-|-3-3-3-3-3-3-3-2-|
|-3-3-3-3-3-3-3-3-|-3-3-3-3-3-3-3-3-|-3-3-3-3-3-3-3-3-|
|-2-2-2-2-2-2-2-2-|-2-2-2-0-0-0-0-0-|-0-0-0-0-0-0-0-2-|
|-----------------|-------0-0-0-0-0-|-0-2-2-2-2-2-2---|
|-----------------|-------2-2-2-2-2-|-2-3-3-3-3-3-3---|
|-----------------|-------3-3-3-3-3-|-3---------------|


|-2-2-2-2-2-3-3-3-|-3-3-3-3-3-3-3-3-|-3-3-3-3-3-3----|
|-3-3-3-3-3-3-3-3-|-3-3-3-3-3-3-3-3-|-3-3-3-3-3-3----|
|-2-2-2-2-2-2-2-2-|-2-2-0-0-0-0-0-0-|-0-0-0-0-0-0----|
|-----------------|-----0-0-0-0-0-0-|-2-2-2-2-2-2----|
|-----------------|-----2-2-2-2-2-2-|-3-3-3-3-3-3----|
|-----------------|-----3-3-3-3-3-3-|----------------|

[ Tab from: http://www.guitartabs.cc/tabs/l/london_dobbs/sunrise_tab.html ]
|---2---2h3p2-2---2---2h3p2-2-|---2---2h3p2-2---|-2---2h3p2-2----|
|-----3-------------3---------|-----3-----------|---3------------|
|-2-------------2-------------|-0-------------0-|----------------|
|-----------------------------|-----------------|----------------|
|-----------------------------|-----------------|----------------|
|-----------------------------|-----------------|----------------|


|-2-2-2-2-2-2-3-3-|-3-3-3-3-3-3-3-3-|-3-3-3-3-3-3-3-2-|
|-3-3-3-3-3-3-3-3-|-3-3-3-3-3-3-3-3-|-3-3-3-3-3-3-3-3-|
|-2-2-2-2-2-2-2-2-|-2-2-2-0-0-0-0-0-|-0-0-0-0-0-0-0-2-|
|-----------------|-------0-0-0-0-0-|-0-2-2-2-2-2-2---|
|-----------------|-------2-2-2-2-2-|-2-3-3-3-3-3-3---|
|-----------------|-------3-3-3-3-3-|-3---------------|


|-2-2-2-2-2-3-3-3-|-3-3-3-3-3-3-3-3-|-3-3-3-3-3-3----|
|-3-3-3-3-3-3-3-3-|-3-3-3-3-3-3-3-3-|-3-3-3-3-3-3----|
|-2-2-2-2-2-2-2-2-|-2-2-0-0-0-0-0-0-|-0-0-0-0-0-0----|
|-----------------|-----0-0-0-0-0-0-|-2-2-2-2-2-2----|
|-----------------|-----2-2-2-2-2-2-|-3-3-3-3-3-3----|
|-----------------|-----3-3-3-3-3-3-|----------------|


|---2---2h3p2-2---|-2---2h3p2-2---2-|---2h3p2-2---2---|-2h3p2-2----|
|-----3-----------|---3-------------|-3-------------3-|------------|
|-2-------------2-|-------------0---|-----------0-----|------------|
|-----------------|-----------------|-----------------|------------|
|-----------------|-----------------|-----------------|------------|
|-----------------|-----------------|-----------------|------------|


Tablature Legend
----------------
 h   - hammer-on
 p   - pull-off
 b   - bend
 pb  - pre-bend
 r   - bend release (if no number after the r, then release immediately)
 /\  - slide into or out of (from/to "nowhere")
 s   - legato slide
 S   - shift slide
  - natural harmonic
[n]  - artificial harmonic
n(n) - tapped harmonic
 ~   - vibrato
 tr  - trill
 T   - tap
 TP  - trem. picking
 PM  - palm muting
\n/  - tremolo bar dip; n = amount to dip
 \n  - tremolo bar down
 n/  - tremolo bar up
/n\  - tremolo bar inverted dip
 =   - hold bend; also acts as connecting device for hammers/pulls
   - volume swell (louder/softer)
 x   - on rhythm slash represents muted slash
 o   - on rhythm slash represents single note slash

Misc Legend
-----------
 |  - bar
||  - double bar
||o - repeat start
o|| - repeat end
*|  - double bar (ending)
 :  - bar (freetime)
 $  - Segno
 &  - Coda
Tempo markers -  = BPM(8/16=s8/s16), where s8 = swing 8ths, s16 = swing 16ths


***************************************************************************************
* Generated using Power Tab Editor by Brad Larsen - http://powertab.guitarnetwork.org *
***************************************************************************************
Comments