London Dobbs - Love Of My Life Chords & Tabs

 

Love Of My Life Chords & Tabs

London Dobbs Chords & Tabs

Version: 1 Type: Tab 0 ratings
1 star 2 stars 3 stars 4 stars 5 stars
comments

Love Of My Life Tab

   
#----------------------------------PLEASE NOTE---------------------------------#
#This file is the author's own work and represents their interpretation of the #
#song. You may only use this file for private study, scholarship, or research. #
#------------------------------------------------------------------------------##


Gtr I (E A D G B E) - 'Untitled'
Gtr II (E A D G B E) - 'Untitled'

  Gtr I
  E E E E E E E E E E E E E E E E   E E E E E E E E   E E E E E E E E
|---------------------------------|-----------------|------------------|
|---------------------------------|-----------------|------------------|
|-1---1---2---2---0---0---5---4---|-1---1---2---2---|-0---0---5---4----|
|---------------------------------|-----------------|------------------|
|---------------------------------|-----------------|------------------|
|-0-0-0-0-0-0-0-0-3-3-3-3-3-3-3-0-|-0-0-0-0-0-0-0-0-|-3-3-3-3-3-3-3-0--|


  E E E E E E E E E E E E E E E E E E E
|---------------------------------------|
|---------------------------------------|
|---1---1-----2---2-----0---0-----5---4-|
|---------------------------------------|
|---------------------------------------|
|-0---0---0-0---0---0-3---3---3-3---3---|


  E E E E E E E E   E E E E E E E E   E E E
|-----------------|-----------------|-------|
|-----------------|-----------------|-------|
|---1---1-----2---|-2-----0---0-----|-5---4-|
|-----------------|-----------------|-------|
|-----------------|-----------------|-------|
|-0---0---0-0---0-|---0-3---3---3-3-|---3---|


  E E E E E E E E E E E E   E E E E E E E E
|-------------------------|-----------------|
|-------------------------|-----------------|
|-------------------------|-----------------|
|-2-2-2-2-2-2-2-2-2-0-0-0-|-0-0-0-0-0-0-2-2-|
|-2-2-2-2-2-2-2-2-2-2-2-2-|-2-2-2-2-2-2-2-2-|
|-0-0-0-0-0-0-0-0-0-3-3-3-|-3-3-3-3-3-3-0-0-|


  E E E E E E E E   E E E E E E E E
|-----------------|-----------------|
|-----------------|-----------------|
|-----------------|-----------------|
|-2-2-2-2-2-2-2-0-|-0-0-0-0-0-0-0-0-|
|-2-2-2-2-2-2-2-2-|-2-2-2-2-2-2-2-2-|
|-0-0-0-0-0-0-0-3-|-3-3-3-3-3-3-3-3-|


  E E E E E E E E E E E E E E E E E E E E E E E E E E
|---------------------------------3-3-----------------|
|---------------------------------3-3-----------------|
|-----------------------------0-0-0-0-0-0-2-2-4-4-2-2-|
|-2-2-0-0-2-2-2-0-0-0-0-0-0-0-2-2-2-2-2-2-2-2-2-2-2-2-|
|-2-2-2-0-2-2-2-2-2-0-0-2-2-2-3-3-3-3-3-3-0-0-0-0-0-0-|
|-0-0-0-0-0-0-0-3-3-3-3-3-3-3-------------------------|


  E E E E E E E E   E E E E E E E E   E E E E E E E E   E E
|-----------------|-----------------|-3-3-------------|--------|
|-----------------|-----------------|-3-3-------------|--------|
|-----------------|-------------0-0-|-0-0-0-0-2-2-4-4-|-2-2----|
|-2-2-0-0-2-2-2-0-|-0-0-0-0-0-0-2-2-|-2-2-2-2-2-2-2-2-|-2-2----|
|-2-2-2-0-2-2-2-2-|-2-0-0-2-2-2-3-3-|-3-3-3-3-0-0-0-0-|-0-0----|
|-0-0-0-0-0-0-0-3-|-3-3-3-3-3-3-----|-----------------|--------|


  E E E E E E E E   E E E E E E E E   E E E E E E E E
|-----------------|-----------------|-3-3-------------|
|-----------------|-----------------|-3-3-------------|
|-----------------|-------------0-0-|-0-0-0-0-2-2-4-4-|
|-2-2-0-0-2-2-2-0-|-0-0-0-0-0-0-2-2-|-2-2-2-2-2-2-2-2-|
|-2-2-2-0-2-2-2-2-|-2-0-0-2-2-2-3-3-|-3-3-3-3-0-0-0-0-|
|-0-0-0-0-0-0-0-3-|-3-3-3-3-3-3-----|-----------------|


  E E E E E E E E   E E E E E E E E   E E E E E E E E   E E E E
|-----------------|-----------------|-----3-3---------|----------|
|-----------------|-----------------|-----3-3---------|----------|
|-2-2-------------|-----------------|-0-0-0-0-0-0-2-2-|-4-4-2-2--|
|-2-2-2-2-0-0-2-2-|-2-0-0-0-0-0-0-0-|-2-2-2-2-2-2-2-2-|-2-2-2-2--|
|-0-0-2-2-2-0-2-2-|-2-2-2-0-0-2-2-2-|-3-3-3-3-3-3-0-0-|-0-0-0-0--|
|-----0-0-0-0-0-0-|-0-3-3-3-3-3-3-3-|-----------------|----------|


  E E E E E E E E E E E E E E E E   E E E E E E E E   E E E E E E E E
|---------------------------------|-----------------|------------------|
|---------------------3-------0---|-----------------|-----3-------0----|
|-------------0---------0-------2-|-------------0---|-------0-------2--|
|-----2-0-------0---2-------2-----|-----2-0-------0-|---2-------2------|
|---2-------2-----3-------0-------|---2-------2-----|-3-------0--------|
|-0-------3-----------------------|-0-------3-------|------------------|


  E E E E E E E E   E E E E E E E E   E E E E E E E E   E E E E E E E E
|-----------------|-----------------|-----------------|-----------------|
|-----------------|-----3-------0---|-----------------|-----3-------0---|
|-------------0---|-------0-------2-|-------------0---|-------0-------2-|
|-----2-0-------0-|---2-------2-----|-----2-0-------0-|---2-------2-----|
|---2-------2-----|-3-------0-------|---2-------2-----|-3-------0-------|
|-0-------3-------|-----------------|-0-------3-------|-----------------|

[ Tab from: http://www.guitartabs.cc/tabs/l/london_dobbs/love_of_my_life_tab.html ]
  E E E E E E E E   E E E E E E E E   E E E E E E E E
|-----------------|-----------------|-3-3-------------|
|-----------------|-----------------|-3-3-------------|
|-----------------|-------------0-0-|-0-0-0-0-2-2-4-4-|
|-2-2-0-0-2-2-2-0-|-0-0-0-0-0-0-2-2-|-2-2-2-2-2-2-2-2-|
|-2-2-2-0-2-2-2-2-|-2-0-0-2-2-2-3-3-|-3-3-3-3-0-0-0-0-|
|-0-0-0-0-0-0-0-3-|-3-3-3-3-3-3-----|-----------------|


  E E E E E E E E   E E E E E E E E   E E E E E E E E   E E E E
|-----------------|-----------------|-----3-3---------|----------|
|-----------------|-----------------|-----3-3---------|----------|
|-2-2-------------|-----------------|-0-0-0-0-0-0-2-2-|-4-4-2-2--|
|-2-2-2-2-0-0-2-2-|-2-0-0-0-0-0-0-0-|-2-2-2-2-2-2-2-2-|-2-2-2-2--|
|-0-0-2-2-2-0-2-2-|-2-2-2-0-0-2-2-2-|-3-3-3-3-3-3-0-0-|-0-0-0-0--|
|-----0-0-0-0-0-0-|-0-3-3-3-3-3-3-3-|-----------------|----------|


  E E E E E E E E   E E E E E E E E   E E E E E E E E
|-----------------|-----------------|-3-3-------------|
|-----------------|-----------------|-3-3-------------|
|-----------------|-------------0-0-|-0-0-0-0-2-2-4-4-|
|-2-2-0-0-2-2-2-0-|-0-0-0-0-0-0-2-2-|-2-2-2-2-2-2-2-2-|
|-2-2-2-0-2-2-2-2-|-2-0-0-2-2-2-3-3-|-3-3-3-3-0-0-0-0-|
|-0-0-0-0-0-0-0-3-|-3-3-3-3-3-3-----|-----------------|


  E E E E E E E E   E E E E E E E E   E E E E E E E E   E E E E
|-----------------|-----------------|-----3-3---------|----------|
|-----------------|-----------------|-----3-3---------|----------|
|-2-2-------------|-----------------|-0-0-0-0-0-0-2-2-|-4-4-2-2--|
|-2-2-2-2-0-0-2-2-|-2-0-0-0-0-0-0-0-|-2-2-2-2-2-2-2-2-|-2-2-2-2--|
|-0-0-2-2-2-0-2-2-|-2-2-2-0-0-2-2-2-|-3-3-3-3-3-3-0-0-|-0-0-0-0--|
|-----0-0-0-0-0-0-|-0-3-3-3-3-3-3-3-|-----------------|----------|


  E E E E E E E E   E E E E E E E E
|-----------------|-----------------|
|-----------------|-----------------|
|-----------------|-----------------|
|-2-2-2-2-2-2-2-2-|-2-0-0-0-0-0-0-0-|
|-2-2-2-2-2-2-2-2-|-2-2-2-2-2-2-2-2-|
|-0-0-0-0-0-0-0-0-|-0-3-3-3-3-3-3-3-|


  E E E E E E E E   E E E E E E E E   E E E E
|-----------------|-----------------|----------|
|-----------------|-----------------|----------|
|-----------------|-----------------|----------|
|-0-0-2-2-2-2-2-2-|-2-2-2-0-0-0-0-0-|-0-0-0-0--|
|-2-2-2-2-2-2-2-2-|-2-2-2-2-2-2-2-2-|-2-2-2-2--|
|-3-3-0-0-0-0-0-0-|-0-0-0-3-3-3-3-3-|-3-3-3-3--|


  E E E E E E E E   E E E E E E E E   E E E E E E E E   E E E E E E E E
|-----------------|-----------------|-----------------|-----------------|
|-----------------|-----------------|-----------------|-----------------|
|-1---1---2---2---|-0---0---5---4---|-1---1---2---2---|-0---0---5---4---|
|-----------------|-----------------|-----------------|-----------------|
|-----------------|-----------------|-----------------|-----------------|
|-0-0-0-0-0-0-0-0-|-3-3-3-3-3-3-3-0-|-0-0-0-0-0-0-0-0-|-3-3-3-3-3-3-3-0-|


  E E E E E E E E   E E E E E E E E   E E E E E E E E   E E E E E E E E
|-----------------|-----------------|-----------------|-----------------|
|-----------------|-----------------|-----------------|-----------------|
|-1---1---2---2---|-0---0---5---4---|-1---1---2---2---|-0---0---5---4---|
|-----------------|-----------------|-----------------|-----------------|
|-----------------|-----------------|-----------------|-----------------|
|-0-0-0-0-0-0-0-0-|-3-3-3-3-3-3-3-0-|-0-0-0-0-0-0-0-0-|-3-3-3-3-3-3-3-0-|


  E E E E E E E E   E E E E E E E E   E E E E E E E E   E E E E E E E E
|-----------------|-----------------|-----------------|-----------------|
|-----------------|-----------------|-----------------|-----------------|
|-1---1---2---2---|-0---0---5---4---|-1---1---2---2---|-0---0---5---4---|
|-----------------|-----------------|-----------------|-----------------|
|-----------------|-----------------|-----------------|-----------------|
|-0-0-0-0-0-0-0-0-|-3-3-3-3-3-3-3-0-|-0-0-0-0-0-0-0-0-|-3-3-3-3-3-3-3-0-|


Duration Legend
---------------
W - whole; H - half; Q - quarter; E - 8th; S - 16th; T - 32nd; X - 64th; a - acciaccatura
+ - note tied to previous; . - note dotted; .. - note double dotted
Uncapitalized letters represent notes that are staccato (1/2 duration)
Irregular groupings are notated above the duration line
Duration letters will always appear directly above the note/fret number it represents the
duration for.  Duration letters with no fret number below them represent rests.  Multi-
bar rests are notated in the form Wxn, where n is the number of bars to rest for.  Low
melody durations appear below the staff

Tablature Legend
----------------
 h   - hammer-on
 p   - pull-off
 b   - bend
 pb  - pre-bend
 r   - bend release (if no number after the r, then release immediately)
 /\  - slide into or out of (from/to "nowhere")
 s   - legato slide
 S   - shift slide
  - natural harmonic
[n]  - artificial harmonic
n(n) - tapped harmonic
 ~   - vibrato
 tr  - trill
 T   - tap
 TP  - trem. picking
 PM  - palm muting
\n/  - tremolo bar dip; n = amount to dip
 \n  - tremolo bar down
 n/  - tremolo bar up
/n\  - tremolo bar inverted dip
 =   - hold bend; also acts as connecting device for hammers/pulls
   - volume swell (louder/softer)
 x   - on rhythm slash represents muted slash
 o   - on rhythm slash represents single note slash

Misc Legend
-----------
 |  - bar
||  - double bar
||o - repeat start
o|| - repeat end
*|  - double bar (ending)
 :  - bar (freetime)
 $  - Segno
 &  - Coda
Tempo markers -  = BPM(8/16=s8/s16), where s8 = swing 8ths, s16 = swing 16ths


***************************************************************************************
* Generated using Power Tab Editor by Brad Larsen - http://powertab.guitarnetwork.org *
***************************************************************************************
Comments