London Beat - Ive Been Thinking About You Chords & Tabs

 

Ive Been Thinking About You Chords & Tabs

London Beat Chords & Tabs

Version: 1 Type: Tab 0 ratings
1 star 2 stars 3 stars 4 stars 5 stars
comments

Ive Been Thinking About You Tab

   
*----------------------------------PLEASE NOTE---------------------------------*
*This file is the author's own work and represents their interpretation of the *
*song. You may only use this file for private study, scholarship, or research. *
*------------------------------------------------------------------------------*
     SONG: I've Been Thinking About You
   ARTIST: London Beat

TABBED BY: CarloteS
    EMAIL: carlotez@hotmail.com	
 COMMENTS: Feel free to write me for any questions...


INTRO
  Sim  	 	    LaM         SolM    
e-2-2---2--2--2--2-2--5--5--5--5--3--3--3--3--3--|
B-3-3---3--3--3--3-3--5--5--5--5--3--3--3--3--3--|
G-4-4---4--4--4--4-4--6--6--6--6--4--4--4--4--4--|
D-4-4---4--4--4--4-4--7--7--7--7--5--5--5--5--5--|
A-2-2---2--2--2--2-2--7--7--7--7--5--5--5--5--5--|
E-2-2---2--2--2--2-2--5--5--5--5--3--3--3--3--3--|	 x2

  Sim  	 	    LaM         SolM    
e-2-2---2--2--2--2-2--5--5--5--5--3--3--3--3--3--|
B-3-3---3--3--3--3-3--5--5--5--5--3--3--3--3--3--|
G-4-4---4--4--4--4-4--6--6--6--6--4--4--4--4--4--|
D-4-4---4--4--4--4-4--7--7--7--7--5--5--5--5--5--|
A-2-2---2--2--2--2-2--7--7--7--7--5--5--5--5--5--|
E-2-2---2--2--2--2-2--5--5--5--5--3--3--3--3--3--|	 x2
   Hee eeeee eee yeahh  got you on my mind (the last time)


Bm				      A G
We must have been stone crazy
Bm				      A G
When we thought we were just friends.
Bm				      A G
'Cause I miss you, baby,
Bm				      A G
And I've got those feelings again.
G				    D  	A
I guess I'm all confused about you,
G			 	    D   	A
I feel so in love. Oh, baby, what can I do?

Coro:
Bm				      A G
I've been thinking about you
Bm				      A G
I've been thinking about you
Bm				      A G
I've been thinking about you
Bm				      A G
I've been thinking about you, shi-pow-pow!

[ Tab from: http://www.guitartabs.cc/tabs/l/london_beat/ive_been_thinking_about_you_tab.html ]
Bm				      A G
Suddenly we're strangers,
Bm				      A G
I watch you walking away.
Bm				      A G
She was my one temptation,
Bm				      A G
Oh, I did not want her to stay
G				    		D  		A
Deep down, I'm still confused about you, oh, yes I am baby
G				    D  	A
I feel so in love. Oh, baby, what can I do?

I've been thinking about you
I've been thinking about you
I've been thinking about you, oh yeah
I've been thinking about you, got you on my mind
I've been thinking about you
I've been thinking about you
I've been thinking about you, oh
I've been thinking about you, got you on my mind, shi-pow-pow, shi-pow-pow!

Solo (2X): 

|------------------------|------------------------|
|------------------------|------------10-10-10-12-|
|---------------11-------|------------------------|
|-9-----9--9-12--------9-|-9--9----12-------------|
|------------------------|------------------------|
|------------------------|------------------------|

|------------------------|------------------------|
|------------------------|------------------------|
|11-11--9--7-----7--7H-9-|----------7-------------|
|------------------------|-9--9--9----11-----9P-7-|
|------------------------|------------------------|
|------------------------|------------------------|
                                                   
|------------------------|
|------------------------|
|------------------------|
|-9----------------------|
|------------------------|
|------------------------|

G				    D  	A
What good is being here without you? I wanna know
G				    D  	A
I feel so in love. Oh, baby, what can I do?

I've been thinking about you
I've been thinking about you
I've been thinking about you, ooh yeah, yeah
've been thinking about you, oh-oh baby
I've been thinking about you, hey can get you on my mind
I've been thinking about you
I've been thinking about you, you're with be baby
I've been thinking about you, oh-oh baby
I've been thinking about you, you're on my mind
I've been thinking about you
I've been thinking about you
I've been thinking about you

-------------------------------------
For any comments: 
carlotez@hotmail.com  
-------------------------------------
Comments