Lola Ray - Automatic Girl Chords & Tabs

 

Automatic Girl Chords & Tabs

Lola Ray Chords & Tabs

Version: 1 Type: Tab 0 ratings
1 star 2 stars 3 stars 4 stars 5 stars
comments

Automatic Girl Tab

Email:snoutman928@yaoo.com
(listen to the song for the strum pattern)
Tuning:standard
intro
e|---------------------------------------------------------------------------|
B|-----1---------------------------------------------------------------------|
G|-2-2----5-5--6-6--7-7--xxxx-7-5-7-5----------------------------------------|
D|-2-2----5-5--6-6--7-7--xxxx-7-5-7-5----------------------------------------|
A|-0-0----3-3--4-4--5-5--xxxx-5-3-5-3----------------------------------------|
E|-----------------------xxxx------------------------------------------------|
verse
e|---------------------------------------------------------------------------|
B|---------------------------------------------------------------------------|
G|---------------------------------------------------------------------------|
D|-7---5---3---5-------------------------------------------------------------|
A|-7---5---3---5-(x4)--------------------------------------------------------|
E|-5---3---1---3-------------------------------------------------------------|
prechorus 
e|---------------------------------------------------------------------------|
B|---------------------------------------------------------------------------|
G|-----------5-6-7-----------------------------------------------------------|
D|-7-7--5-5--5-6-7----X3-----------------------------------------------------|
A|-7-7--5-5--3-4-5-----------------------------------------------------------|
E|-5-5--3-3------------------------------------------------------------------|
chorus
e|---------------------------------------------------------------------------|
B|-----------------------------7---------------------------------------------|
G|-10--5--9--7---10--12---10---7---------------------------------------------|
D|-10--5--9--7---10--12---10---5---------------------------------------------|
A|-8---3--7--5---8---10---8--------------------------------------------------|
E|---------------------------------------------------------------------------|
bridge (lead)
e|--------------------------/------------------------------------------------|
B|--------------------------/------------------------------------------------|
G|-5(x6)--4(x6)--5(x6)-7(x6)/-5(x6)-4(x6)-2(x6)-4(x6)------------------------|
D|--------------------------/------------------------------------------------|
A|--------------------------/------------------------------------------------|
E|--------------------------/------------------------------------------------|
bridge (rythym) joins lead after /
e|---------------------------------------------------------------------------|
B|---------------------------------------------------------------------------|
G|---------------------------------------------------------------------------|
D|-7------5------3------2----------------------------------------------------|
A|-7(x6)--5(x6)--3(x6)--2(x6)------------------------------------------------|
E|-5------3------1------0----------------------------------------------------|

uh i think thats it. if you have any questions or comments put it on the comment page of email me
[ Tab from: http://www.guitartabs.cc/tabs/l/lola_ray/automatic_girl_tab.html ]
Comments