Lodine - Powertrip Chords & Tabs

 

Powertrip Chords & Tabs

Lodine Chords & Tabs

Version: 1 Type: Tab 0 ratings
1 star 2 stars 3 stars 4 stars 5 stars
comments

Powertrip Tab

   
C#F#BEG#C#

>>>>>>>>=pick scrape
/=slide
p=pull on


Riff a
---------------------------------------------
---------------------------------------------
---------------------------------------------   x3
---2-----2--3-----3--2-----2-----------------
---2--------3--------2-------3p2-3p5---------
---0-0-0----1-3-3----0-0-0-----------3p2-2p0-

Riff b



-----------------------------------------
-----------------------------------------
-----------------------------------------
-----------2------5--2-----5/8-----------
-----------2------5--2-----5/8-----------
->>>>>>>---0--0-0-3--0-0-0-3/6-----------
[ Tab from: http://www.guitartabs.cc/tabs/l/lodine/powertrip_tab.html ]
 scrape ist time only     End riff b
-------------------------
-------------------------
-------------------------
--2-----5-2-----5/4-5/4--  x4 (4th time see alternate) 
--2-----5-2-----3/2-3/2--
--0-0-0-3-0-0-0----------

4th time
-----------------------------------------------------
-----------------------------------------------------
-----------------------------------------------------
-2-----5--2-----5/8--2-----5--2--------5-------------
-2-----5--2-----5/8--2-----5--2-----5p7--------------
-0-0-0-3--0-0-0-3/6--0-0-0-3--0-0-0------------------


interlude
-----------------------------------------------------
-----------------------------------------------------
----------------------------------------------------- x2
---------7---------5--------3----0-2-----------------
-----7p9-------5p7-------3p5-------------------------
-0-0-------0-0-------0-0------0-0--------------------






Comments