Lodger - I Love Death Chords & Tabs

 

I Love Death Chords & Tabs

Lodger Chords & Tabs

Version: 1 Type: Tab 1 rating
1 star 2 stars 3 stars 4 stars 5 stars
comments

I Love Death Tab

tabbed by cyrostir http://cyrostir.nexislogic.com

here is the main riff

E|--------------------------------------------------------|high e string
B|--------------------------------------------------------|
G|--------------------------------------------------------|
D|---12-12-12-12--11-11-11-11--15-15-15-15--14-14-14-14---|
A|---12-12-12-12--11-11-11-11--15-15-15-15--14-14-14-14---|
E|---10-10-10-10--8- 8- 8- 8---13-13-13-13--12-12-12-12---|low e string

repeat a few times then go into the chorus....
[ Tab from: http://www.guitartabs.cc/tabs/l/lodger/i_love_death_tab.html ]
E|-------------------------------------------------------|high e string
B|-------------------------------------------------------|
G|---14-14-14-14-14-14-14-14-14-14-14-14-14-14-14-14/----|
D|---14-14-14-14-14-14-14-14-14-14-14-14-14-14-14-14/----|
A|---12-12-12-12-12-12-12-12-12-12-12-12-12-12-12-12/----|
E|-------------------------------------------------------|low e string
or you can just play it once and let it ring for about 12 seconds then go to this right after the 12 seconds...

E|-------------------------------------------------------|high e string
B|-------------------------------------------------------|
G|---17-17-17-17-17-17-17-17--12-12-12-12-7-7-7-7-------|
D|---17-17-17-17-17-17-17-17--12-12-12-12-7-7-7-7-------|
A|---15-15-15-15-15-15-15-15--10-10-10-10-5-5-5-5-------|
E|-------------------------------------------------------|low e string

then they go to the bridge

E|----------------------------------------|high e string
B|----------------------------------------|
G|----------------------------------------|
D|---8-8-8-8-8-8-8-8--7-7-7-7-7-7-7-7-----|
A|---8-8-8-8-8-8-8-8--7-7-7-7-7-7-7-7-----|
E|---6-6-6-6-6-6-6-6--5-5-5-5-5-5-5-5-----|low e string

after you play that go back up to the main riff!!


and thats it!

tell me what you think, this is my first tab!!

see the flash cartoon with the music

http://koti.welho.com/alaari/lodger/
Comments