Locust - Nice Tranquil Thumb In The Mouth Chords & Tabs

 

Nice Tranquil Thumb In The Mouth Chords & Tabs

Locust Chords & Tabs

Version: 1 Type: Tab 0 ratings
1 star 2 stars 3 stars 4 stars 5 stars
comments

Nice Tranquil Thumb In The Mouth Tab

http://www.thelocust.com/


Band: The Locust
Song: Nice Tranquil Thumb In The Mouth
/: slide up
\: slide down
i think its normal tuning
tab by vilas - thebloodbrothers87@hotmail.com

ok this tab is extremely horrible, but im just posting do give anyone who
wants it an idea of how to play it... whatever.


Intro:
                                 x2
E---------------------------------|
B---------------------------------|
G---9-9-9-9-9-9-/x\-101010101010--|
D---8-8-8-8-8-8-/x\--9-9-9-9-9-9--|
A---7-7-7-7-7-7-/x\--8-8-8-8-8-8--|
E---------------/x\---------------|

ok this next part is really hard to understand and hear but just slide up
and down a lot and do weird stuff... i'll try and write the way i do it.

(so just do this for a little bit.)
E----------------------------------------------------------------|
B----------------------------------------------------------------|
G----------------------------------------------------------------|
D----------------------------------------------------------------|
A----------------------------------------------------------------|
E--1/7\5/6\5/12\11/12\7\5/6/7/12\11/12\7\1/3/5/7\6\5-------------|

[ Tab from: http://www.guitartabs.cc/tabs/l/locust/nice_tranquil_thumb_in_the_mouth_tab.html ]
(im really sure that this part is right)
                      x5
E---------------------|
B------3----2----1----|
G------3----2----1----|
D---------5----5---5--|
A---5-----------------|
E-3-------------------|

(and then this crap again)
E----------------------------------------------------------------|
B----------------------------------------------------------------|
G----------------------------------------------------------------|
D----------------------------------------------------------------|
A----------------------------------------------------------------|
E--1/7\5/6\5/12\11/12\7\5/6/7/12\11/12\7\1/3/5/7\6\5-------------|


                      x4
E---------------------|
B------3----2----1----|
G------3----2----1----|
D---------5----5---5--|
A---5-----------------|
E-3-------------------|


ok now the outro is hard to understand also.. its really weird.
(just mess around doing this type of thing for a little)
E------------------------------|
B------------------------------|
G-----7---77-----910-9---7-7-7-|
D-----6---66-----8-9-8---6-6-6-|
A-----5---55-----7-8-7---5-5-5-|
E---0---0-----00---------------|


and here is that very last little ending part.
E----------------------------------------------------------------|
B----------------------------------------------------------------|
G--9-10-9--8-9-8-------------------------------------------------|
D--8--9-8--7-8-7-------------------------------------------------|
A--7--8-7--6-7-6-------------------------------------------------|
E----------------------------------------------------------------|
Comments