Loco - Vanidosa Chords & Tabs

 

Vanidosa Chords & Tabs

Loco Chords & Tabs

Version: 1 Type: Tab 0 ratings
1 star 2 stars 3 stars 4 stars 5 stars
comments

Vanidosa Tab

Intro
E-----------------|-----------------|-----------------|-----------------|
B-----------------|-----------------|-----------------|-----------------|
G-12--12--12-12-12|-----------------|-----------------|-----------------|  
D-12--12--12-12-12|-12--12-12--12-12|-12-12-8--8--8-8-|8--10--10-10--10-|
A-10--10--10-10-10|-12--12-12--12-12|-12-12-8--8--8-8-|8--10--10-10--10-|
E-10--10--10-10-10|-10--10-10--10-10|-10-10-6--6--6-6-|6--8---8---8--8--|
 
E-----------------|*2
B-----------------|
G-----------------|
D10--10-10--------|
A10--10-10--------|
E8---8--8---------|
[ Tab from: http://www.guitartabs.cc/tabs/l/loco/vanidosa_tab.html ]
Verse
E-----------------|-----------------|-----------------|*4
B-----------------|-----------------|-----------------|
G-----------------|-----------------|-----------------|
D-X-12-X-12-X-10-X|10-X-9-X-9-X-8-X-|8----------------|
A-X-12-X-12-X-10-X|10-X-9-X-9-X-8-X-|8----------------|
E-X-10-X-10-X-8--X|8--X-7-X-7-X-6-X-|6----------------|

Chorus (Distortion)
E-----------------|-----------------|------------------|-----------------|*4
B-----------------|-----------------|------------------|-----------------|
G-----------------|-10-1010101010-X-|------------------|-----------------|  
D-12-1212121212-X-|-10-1010101010-X-|-8-88888s-1212s-10|1010101010-------|
A-12-1212121212-X-|-8--8-8-8-8-8--X-|-8-88888s-1212s-10|1010101010-------|
E-10-1010101010-X-|-----------------|-6-66666s-1010s-8-|8-8-8-8-8--------|

Interlude (Repeat Intro*1)
Verse*2
Chorus*4
Interlude
Chorus*4



This is a really great song By an excelent Punk Musician of Querétaro Jaime El Loco. I hope you enjoy it



L          0000      CCCCC      0000
L         0    0    C          0    0
L        0      0  C          0      0
L         0    0    C          0    0
LLLLLL     0000      CCCCC      0000
Comments