Local H - What Can I Tell You Chords & Tabs

 

What Can I Tell You Chords & Tabs

Local H Chords & Tabs

Version: 2 Type: Bass Tab 0 ratings
1 star 2 stars 3 stars 4 stars 5 stars
comments

What Can I Tell You Bass Tab

"What Can I tell you?"
  LOCAL H Pack up the cats.
  Tabbed by DirectR3@aol.com

If you have a distortion pedal for your bass, use it.  Sounds good.
[ Tab from: http://www.guitartabs.cc/tabs/l/local_h/what_can_i_tell_you_btab_ver_2.html ]
Kick in riff
-------------------------------------------------------------
-------------------------------------------------------------
-7-7-7\5/7\----7-7-7\5/7\----7-7-7\5/7\----7-7-7-10-7-10-7---
------------------------------------------------------------- 8 measures
Slide like crazy!

Verse intro
-----------------
-----------------
-7-7-------------
-------3-0-3-0--- 4 measures

Verse (very low) play in slap to get the vibrations right.
  --------------------------
  --------------------------
  --------------------------
  -0-0-3-0-3-0-00-0-3-0-3-0- 8 measures

---------------------------
---------------------------
--3-3-3-3-5-5-5-5----------
------------------3-3-5-5-- 4 measures

Pretty Sweet...
Comments