Local H - No Problem Chords & Tabs

 

No Problem Chords & Tabs

Local H Chords & Tabs

Version: 3 Type: Tab 0 ratings
1 star 2 stars 3 stars 4 stars 5 stars
comments

No Problem Tab

1/2 step tuning

/ = Slide
^ = Pick upward

Intro
        ^   ^
e|------0--------------------|
b|----0-0-0-0----------------|
g|-1--1---1-1------- repeat--| 8x
d|-2--2---2-2--2-------------|
a|-2--2---2-2--2-------------|
E|-0--0---0-0--0-------------|


Riff1                                                    ^
e|-0---0-0-0-0-0--0-0-0--0-0---0-0-0--0-0-0-0---0--0--0--0--0--|
b|-X---X-X-X-X-X--X-X-X--X-X---X-X-X--X-X-X-X---X--X--X--X--X--|
g|-6///8-8-8-9-4--4-4-4--4-4//11-9-4--4-4-4-4//10-10-10-10-10--|
d|-X---X-X-X-X-X--X-X-X--X-X---X-X-X--X-X-X-X---X--X--X--X--X--| 2x
a|-4///6-6-6-7-2--2-2-2--2-2///9-7-2--2-2-2-2///7--7--7--7--7--|
E|-------------------------------------------------------------|

Verse

        ^   ^
e|------0----------|
b|------0---0------|
g|-1--1---1-1------| Repeat 6x  and then...............
d|-2--2---2-2-2----|
a|-2--2---2-2-2----|
E|-0--0---0-0-0----|

e|-------0-----0-----0------|
b|-2---2-2-2-2-2-2-2-2-2-2--|
g|-2---2---2-2---2-2---2-2--|
d|-2---2---2-2---2-2---2-2--|
a|-0---0---0-0---0-0---0-0--|
E|--------------------------|
[ Tab from: http://www.guitartabs.cc/tabs/l/local_h/no_problem_tab_ver_3.html ]
then repeat the whole verse again and then go to this
                          ^                       ^
e|-------0-----0-----0----0-------------0-----0---0-----|
b|-------0-----0-----0----0-------------0-----0---0-----|
g|-6---6---6-6---6-6---6----4---4---4-4---4-4---4-------|
d|-6---6---6-6---6-6---6----4---4---4-4---4-4---4-------|
a|-4---4---4-4---4-4---4----2---2---2-2---2-2---2-------|
E|------------------------------------------------------|

then play Riff 1 2x, then........

* = Repeat  3x beginning at that point
                                   *
e|-------------------------------------------------------|
b|-------------------------------------------------------|
g|-13-13-13-14-14-11--11-11-11--11-16-13-13-13-14-14-11--|
d|--X--X--X--X--X--X---X--X--X---X--X--X--X--X--X--X--X--|
a|-11-11-11-12-12--9---9--9--9---9-14-11-11-11-12-12--9--|
E|-------------------------------------------------------|

-------------------|
-------------------|
-11-11-11----------|
--X--X--X----------|
--9--9--9----------|
-------------------|

Then play Riff 1 until.......

With distortion

e|-----------------|
b|-----------------|
g|-1~~~1~~~1~~~1~~~
d|-2~~~2~~~2~~~2~~~
a|-2~~~2~~~2~~~2~~~
E|-0~~~0~~~0~~~0~~~
Comments