Local H - No Problem Chords & Tabs

 

No Problem Chords & Tabs

Local H Chords & Tabs

Version: 1 Type: Tab 0 ratings
1 star 2 stars 3 stars 4 stars 5 stars
comments

No Problem Tab

   
okay this is a super-ez song 2 play, so here goes.

you'll hafta listen to the first note you hear on the song, and tune 
your E string down to it to get the right sound.

e:------0-0-0-0------0-0-0-0------0-0-0-0-------0-0-0-0
B:------0-0-0-0------0-0-0-0------0-0-0-0-------0-0-0-0
G:-----1-1-1-1-------1-1-1-1-----1-1-1-1--------1-1-1-1
D: ----2-2-2-2-------2-2-2-2------2-2-2-2-------2-2-2-2
A: -----2-2-2-2-------2-2-2-2------2-2-2-2------2-2-2-2
E:0-0-0-0-0-0-0-0-0-0-0-0-0-0-0-0-0-0-0-0-0-0-0-0

repeat

hook: (its no problem)
e:------------------------------------------------------0-------------
B:--------------------------------------------------------------------
G:8-8-8-8-9-4-4-4-4-4-4-11-9-4-4-4-4-4-4---------------
D:--------------------------------------------------------------------
A: 6-6-6-6-7-2-2-2-2-2-2-9--7-2-2-2-2-2-2----------------
E: 0-0-0-0-0-0-0-0-0-0-0-0-0-0-0-0-0-0-0--0-0-0-0-0-0

VERSES (you'd like to think that its out of fear...):
[ Tab from: http://www.guitartabs.cc/tabs/l/local_h/no_problem_tab.html ]
e:------0-0-0-0-----0-0-0-0--------0-0-0-0-----0-0-0-0
B:------0-0-0-0-----0-0-0-0--------0-0-0-0-----0-0-0-0
G:-----1-1-1-1------1-1-1-1--------1-1-1-1-----1-1-1-1
D:-----2-2-2-2------2-2-2-2--------2-2-2-2-----2-2-2-2
A: -----2-2-2-2------2-2-2-2-------2-2-2-2------2-2-2-2
E:0-0-0-0-0-0-0-0-0-0-0-0-0-0-0-0-0-0-0-0-0-0-0-0

then do half of that, and then...

E:0-0-0-0-0-0-0-0-0-0-0-0
B:2-2-2-2-2-0-0-0-2-2-2-2
G:2-2-2-2-2-2-2-2-2-2-2-2
D:2-2-2-2-2-2-2-2-2-2-2-2
A:0-0-0-0-0-0-0-0-0-0-0-0
E:

then to the channel (you had me but its over now)

E:0-0-0-0-0-0-0-0-0-0-0-0-0-0-0-0-0-0-0-0-0-0-0-0
B:0-0-0-0-0-0-0-0-0-0-0-0-0-0-0-0-0-0-0-0-0-0-0-0
G:6-6-6-6-6-6-6-6-6-6-6-6-4-4-4-4-4-4-4-4-4-4-4-4
D:6-6-6-6-6-6-6-6-6-6-6-6-4-4-4-4-4-4-4-4-4-4-4-4
A:4-4-4-4-4-4-4-4-4-4-4-4-2-2-2-2-2-2-2-2-2-2-2-2
E:x-x-x-x-x-x-x-x-x-x-x-x-x-x-x-x-x-x-x-x-x-x-x-x-x-x-x-x-x

then to the hook (its no problem)

do that again, then...

E:
B:
G:13-13-13-13-1411-11-11111111/16
D:13-13-13-13-1411-11-11111111/16
A:11-11-11-11-12--9--9--9--9--9--9/14
E: 

yeah, then back to it's no problem...
then play your E chord (0-2-2-1-0-0) over and over
until the end on major distortion

yay! good song. happy playing. oh and dont take this 
as it is, you might want to tweak it a little here and there.
kisses,
nena
Comments