Local H - Lucky Chords & Tabs

 

Lucky Chords & Tabs

Local H Chords & Tabs

Version: 1 Type: Tab 0 ratings
1 star 2 stars 3 stars 4 stars 5 stars
comments

Lucky Tab

1/2 step down, Dropped "D"
[ Tab from: http://www.guitartabs.cc/tabs/l/local_h/lucky_tab.html ]
  x4
|------------------------------------------------
|------------------------------------------------
|o-----------14---------------------14-----------
|o--------12----12----12------13-------13----12--
|------12----------12------12----12-------12-----
|---12-------------------------------------------

                ---------------------------------|
                ---------------------------------|
                --------9--------------9--------o|
                ------7---7---7------7---7---7--o|
                ----7-------7------7-------7-----|
        
Comments