Local H - I Just Want Something To Do Chords & Tabs

 

I Just Want Something To Do Chords & Tabs

Local H Chords & Tabs

Version: 1 Type: Tab 0 ratings
1 star 2 stars 3 stars 4 stars 5 stars
comments

I Just Want Something To Do Tab

   
-------------------------------------------------------------------------------
                 I JUST WANT SOMETHING TO DO - Local H
-------------------------------------------------------------------------------

Tabbed by: Tom Raley
Email: djrails@netzero.com

Tuning:EADGBe

e|---------------------------------------------------------------------------|
B|---------------------------------------------------------------------------|
G|---------------------------------------------------------------------------|
D|------7-7-7-7-7---5---3-3-3-3-3--------------------------------------------|
A|------7-7-7-7-7---5---3-3-3-3-3--------------------------------------------|
E|------5-5-5-5-5---3---1-1-1-1-1--------------------------------------------|
            
[ Tab from: http://www.guitartabs.cc/tabs/l/local_h/i_just_want_something_to_do_tab.html ]
        x x x x x x x x    x x x x   x x x x
e|---------------------------------------------------------------------------|
B|---------------------------------------------------------------------------|
G|---------------------------------------------------------------------------|
D|------7-7-7-7-7-7-7-7----3-3-3-3---5-5-5-5---------------------------------|
A|------7-7-7-7-7-7-7-7----3-3-3-3---5-5-5-5---------------------------------|
E|------5-5-5-5-5-5-5-5----1-1-1-1---3-3-3-3---------------------------------|
   Repeat throughout verses  (Don't palm mute last chord on last time)

e|---------------------------------------------------------------------------|
B|---------------------------------------------------------------------------|
G|---------------------------------------------------------------------------|
D|------3-3-3-3-3-3-3-3---5-5-5-5-5-5-5-5---7-7-7-7-7-7-7-7------------------|
A|------3-3-3-3-3-3-3-3---5-5-5-5-5-5-5-5---5-5-5-5-5-5-5-5------------------|
E|------1-1-1-1-1-1-1-1---3-3-3-3-3-3-3-3---5-5-5-5-5-5-5-5------------------|

e|---------------------------------------------------------------------------|
B|---------------------------------------------------------------------------|
G|---------------------------------------------------------------------------|
D|---------------------------------------------------------------------------|
A|---------------------------------------------------------------------------|
E|---1--1/3---3/5------------------------------------------------------------|

All the parts are there.  Listen to song for rythm and strumming.
Corrections are welcome.  My E-mail address is above.

| /  slide up
| \  slide down
| h  hammer-on
| p  pull-off
| ~  vibrato
| +  harmonic
| x  Mute note
===============================================================================
Comments