Local H - Everyone Alive Chords & Tabs

 

Everyone Alive Chords & Tabs

Local H Chords & Tabs

Version: 1 Type: Tab 0 ratings
1 star 2 stars 3 stars 4 stars 5 stars
comments

Everyone Alive Tab

Everyone Alive by Local H
Tabbed by Aaron Soat

Drop D tuning

^ = palm mute
s = slide
qs = quick slide
[ Tab from: http://www.guitartabs.cc/tabs/l/local_h/everyone_alive_tab.html ]
Intro/Bridge                      Verse            Pre Chorus
--------------   -------------------   --------   ----------------|
-------------   -------------------   --------   -----------------|
-------------   -------------------   --------   -----------------|
44-11-66-44-1   1-11-1111-1-11-1111   6qs13s11   444s111s444s111--|
44-11-66-44-1   1-11-1111-1-11-1111   6qs13s11   444s111s444s111--|
44-11-66-44-1   1-11-1111-1-11-1111   6qs13s11   444s111s444s111--|
                ^ ^^ ^^^^   ^^ ^^^^              ^^^^^^^^^^^^^^^

  Chorus (first part)
------------------------|
------------------------|
------------------------|
1-----4-----6-----9-----|
1-x16-4-x16-6-x16-9-x16-|
1-----4-----6-----9-----|

   Chorus (second part)
-----------------------------|
-----------------------------|
-----------------------------|
1-----4-----6-----9----11----|
1-x16-4-x16-6-x16-9-x8-11----|x8
1-----4-----6-----9----11----|

 The only time you hit the 11th fret is in the second part of the verse and the second 
of the chorus. I don't have the solo figured out yet, but I might have it soon. -Soat
Comments